CMX : Tabulatuurit : Kivinen kirja

Intro:
E5 E5 C5 C5 G5 G5 G5 D5    x 2

intron loppu:
D-2---2-2-0----------------------
A-----------2-----3---3-2---0----
E-------------3---------------3--

Säe bassolla eka
E-3-0-0-0-0-0-3-0-0-0-0-0-3-0-3-5

Ja skebaa päälle
D-5-2---2---2-5-2---2---2-5-2-5-7
A-5-2---2---2-5-2---2---2-5-2-5-7
E-3-0---0---0-3-0---0---0-3-0-3-5




Silmät näkee, vaan ei tunne mitään...
A---------------------------------------3-3-3-2---------3-3-3-2---
E-5-5-5-7-7-7-5-7-8-8-8-7-7-7-8-7-1-1-1---------3-1-1-1---------3-




Välisoitto
D-2-5-2-1-0---------------------
A-----------2-1-0---------------
E-----------------3-5-3-2-3-2-1-



Kerto:
E5 E5 C5 C5 G5 G5 G5 D5    x 3
E5 E5 C5 C5 G5 G5 D5 D5    x 1




Väli:
D-2---2-2-0----------------------
A-----------2-----3---3-2---0----
E-------------3---------------3--

E-0---0-3---3-0---0-3---3-0---3-

ja uudestaa viel toi alkuosa tästä, ja sitte tokaan säkeeseen




Tokan kertsin (josta jää tuo viiminen rivi pois) jälkeen tulee neljä
kertaa

D5 A5 A#5 F5 G5

ja sitten välisoitto taas
D-2-5-2-1-0---------------------
A-----------2-1-0---------------
E-----------------3-5-3-2-3-2-1-




Sitten taas kertosäettä loppuun, ja outro on sitte tuo välisoitto tuolla
aiemmin
D-2-5-2-1-0---------------------
A-----------2-1-0---------------
E-----------------3-5-3-2-3-2-1-

Noin soittaisin yhellä kitaralla

- J. Kaasalainen

(Päivitetty 05.01.2009)


Muokkaa tabulatuuria »