CMX : Tabulatuurit : Turkoosi

Tää on sittennii ton Turkoosin kertosäkeen jälkeinen bassokuvio. 



G------2-0------------
D----2-----4-0--------
A--0------------------
E---------------------


Näin se suunnilleen menee. Voi kyllä olla erilaillakin. Tehty kitaralla.


..eikös se mene eestä?

Korjattu versio


D-----2-------|
A---2---5-4-0-|
E-0-----------|


jaa tota.. öy?? aijaa...mä..ajattelin että se menis niinku näin...

D-----2-0----|
A---2-----4--|
E-0--------5-|

Mutta ihan sama... =) joo.. ollaanpa taas näsäviisaita.

Tai jopa:

G----------------
D-----2----------
A---2---5-4------
E-0---------5----

Ehkäpä, jopa kerrassaan kertakaikkiaan NÄIN:

G------------
D------------
A-----------0
E-0-7-7-9-8--


Tai sitten se menis jopa näin:
G-------------
D-----2-0-----
A---2-----4-0-
E-0-----------
Tai sitten näin:
G---------------
D---------------
A-----7----4----
E-0-7---10---5--
Tai...:
G---------------
D-------0-------
A---2-7-----0---
E-0-------9-----
Juuh, ollaanpa sitä taas niin hauskoja, niiiin hauskoja.

-Henkka

Antakaapas kun minä olen hauska:

G-----------
D-----------
A-----7-5-4-
E-0-7------5

Ja jatketaanpas hauskanpitoa:
G--------------
D-----2--------
A----------4---
E-0-7---10---5-
Ja:
G-------------
D-----2-------
A-------5-----
E-0-7-----9-5-

By the way:
g:--------------
d:-----2-0------
a:---2----------
e:-0----------5-
h:---------14---


Tätä hauskanpitoa on aivan pakko jatkaa:
 A-|--------------|
 E-|-----0--------|
 G-|---4---7----2-|
C#-|-3-------10---|

HUOMAA "viritys"!


Hei antakaas kun mäkin, tää on sit se ainoa ja oikea =)

D-l-----2-0------l
A-l---2-----4-0--l
E-l-0-------------l

Ja kertosäe (Tästä se hauskanpito vasta alkaa=)

G-l-------------------------------------l
D-l---------------------4--------------l
A-l----3-------------5----5----2------l
E-l-5----5--0-3-0----------3----3---l



(Päivitetty 17.08.2008)


Muokkaa tabulatuuria »