CMX : Tabulatuurit : Parvatin tietäjä

E-A-D-G-H-e

intro
                x8                     x4                     x4
|-----------------|----------------------|----------------------|
|-----------------|----------------------|----------------------|
|-----------------|----------------------|----------------------|
|---9-10-9---9-10-|----12-13-12----12-13-|----14-15-14----14-15-|
|-7--------7------|-10----------10-------|-12----------12-------|
|-----------------|----------------------|----------------------|

"On tähti kuin kevään aurinko..." :
                   x4                x4 
|--------------------|-----------------||x2
|--------------------|-----------------||
|--------------------|-----------------||
|---10-11-10---10-11-|---9-10-9---9-10-||
|-8----------8-------|-7--------7------||
|--------------------|-----------------||
                     x4                     x4
|----------------------|----------------------||x2
|----------------------|----------------------||
|----------------------|----------------------||
|----12-13-12----12-13-|----14-15-14----14-15-||
|-10----------10-------|-12----------12-------||
|----------------------|----------------------||


> "Vain yksi tulee ja pakenee..." - Tästä on vähän vaikea
> ottaa selkoa, mutta ehkäpä siinä on jotain tällaista :

Korjailin tämän kohan
| Dm | Am | Dm | Am | Gm | Dm | Dm | Am | Gm | Dm | Dm | Am |

              x4              x4
|---------------|---------------||x2
|---------------|---------------||
|---------------|---------------||
|---------------|---------------||
|---3-4-3---3-4-|---2-3-2---2-3-||
|-1-------1-----|-0-------0-----||

Seuraava säkeistö menee samalla tavalla kuin edellinenkin ja soolon 
alla on samat soinnut kuin "vain yksi tulee ja pakenee" -kohdassa.
Ja Han Solo menee jotenkin tälviisii (ajoitukset ja varmaan paljon 
muutakin ihan päin helvettiä):

                   
|--------12-10-12-13---121312---1012-|
|-10---------------------------------|
|------------------------------------|
|------------------------------------|
|------------------------------------|
|------------------------------------|

                   
|--------12-10-12-13---121312---13-12-13-|
|-10-------------------------------------|
|----------------------------------------|
|----------------------------------------|
|----------------------------------------|
|----------------------------------------|

                         
|-15---131512--121310--10-12-12b13r12------10-12-121312-|
|-------------------------------------10----------------|
|-------------------------------------------------------|
|-------------------------------------------------------|
|-------------------------------------------------------|
|-------------------------------------------------------|


|--------12-10-12-13---121312---13-12-13-|
|-10-------------------------------------|
|----------------------------------------|
|----------------------------------------|
|----------------------------------------|
|----------------------------------------|

                    
|-15---131513--121312--121310---10-12b13r12-1012-|
|------------------------------------------------|
|------------------------------------------------|
|------------------------------------------------|
|------------------------------------------------|
|------------------------------------------------|

  f               e
|--------12-10-12-13---121312-|
|-10--------------------------|
|-----------------------------|
|-----------------------------|
|-----------------------------|
|-----------------------------|

Soolon jälkeen sitten Kaikkivaltiaan alkuriffit:
                                                 x4
|--------------------------------------------------|---------|
|--------------------------------------------------|---------|
|--------------------------------------------------|---------|
|---------------------------------------------7----|---------|
|-----0-7-10-7---0-7-10-7---0-7-10--7--9---------9-|-109-7-5-|
|-0--0----------0----------0--------------10-------|-8-7-5-3-|
                                                             x2
|--------------------------------------------------------------|
|--------------------------------------------------------------|
|--------------------------------------------------------------|
|--------------------------------------10--9---7---5---4-5-2---|
|---7-9---9-10--1012---12-14-1012-9-10-8---7---5---3---2-3-2---|
|-0-5-7-0-7-8-0-8-10-0-10-12-8-10-7-8------------------------3-|

Ja sitten rämähtääkin Punainen komentaja käyntiin.

-HM

(Päivitetty 05.12.2007)


Muokkaa tabulatuuria »