CMX : Tabulatuurit : Kaikkivaltiaan peili

Tässäpä vähän alkua, vire on se normi EADGHe

|-------------------------------------------
|-------------------------------------------
|-------------------------------------------
|------16------16---19------17------17---17-
|---14------14-----------15------15---------
|-0-------0-------0----0-------0-------0----

-----------------------------------------|
-----------------------------------------|
-----------------------------------------|
------12------12---14-----11-----11---11-|
---10------10-----------9------9---------|
-0-------0-------0----0------0------0----|

Noin se vissiin menee. 
Toinen kitara jynkyttää sitten voimasointua E siihen päälle (välillä
käy nopsasti G:ssäkin).

-HM

Tajunta on tyhjä...
G5 | A#5 | G5 | A#5 | G5 | A#5 | F5 | C5


Sortuu valtakunta tomuun...
Am | D | Am | D | Hm | F#m | G | E

ja viimein D

-RR


 täppäilyä.
Vähän hämärä kohta, mutta minusta se on helpoin soittaa näin:
Oikea etu/keskisormi 5-väliin ja vasemmalla hammer-on ja pull-offeja. 
tai normi täppäilyä, vasen etusormi 5-väliin ja oikealla yrität
täppäillä loput. 
 15-17 , 13-15, ja 12-13 slaidi
   
|---------------------------------------------
|-5-10-12-5-12-13-5-13-15-5-15-17-13-15-12-13-
|---------------------------------------------
|---------------------------------------------
|---------------------------------------------
|---------------------------------------------

|---------------------------
|-6--13-5--12-3--10-1--8--
|---------------------------
|---------------------------
|---------------------------
|---------------------------


-juha


|-0-------0-------0-------0--------------------------------
|--10-12--12-13-13-15-15-17-13-15-12-13--------
|------------------------------------------------------------
|------------------------------------------------------------
|------------------------------------------------------------
|------------------------------------------------------------


-JH

No tepäs sen hankalasti soitatte...

|-0-5-7-0-7-8-0-8-10-0-10-12-8-10-7-8-
|-------------------------------------
|-------------------------------------
|-------------------------------------
|-------------------------------------
|-------------------------------------

----8----7----5----3----------|
-6----5----3----1-------------|
----------------------2-0-----|
-------------------------2-0--|
----------------------------3-|
------------------------------|

Laittakaa joku vielä vaihtoehtoisia tabulatuureja tästä kohdasta,
niin tämä alkaa olla yhtä lystikäs kuin Turkoosin bassotabla!

Alun 7/4 säkeistöt menee soinnuin D5 E5 | G5 A5, kuunnelkaa
rytmitykset levyltä.
-HeMEH

(Päivitetty 02.11.2007)


Muokkaa tabulatuuria »