CMX : Tabulatuurit : Quanta

Intro + vähän lisää

e|----------------|-2-----------------------------------------|
B|--2-3-2---2-----|---5-3-2-3--2---2-3-2---2------------------|
G|--------4---2---|--------------2-------4---2----------------| Loppuosa
soitetaan x10
D|----------------|-------------------------------------------|
Viimeisellä kerralla ilman
A|----------------|-------------------------------------------| viimeistä
nuottia
E|----------------|-------------------------------------------|

0:58
e|------------------------------------------------------------|
B|------------------------------------------------------------|
G|--------------------------2-0-------------------------------| x99
D|--------2-0-------------2-------3-2-0-----------------------|
A|------2-------3-2-0--(0)------------------------------------|
E|---(0)------------------------------------------------------|
(Suluissa olevat ainoastaan bassolla?)


2:25
e|-----------------------------------------------------------------------------|
B|---10-10----8--8-----------------------------------------------------------|
G|--------------------------7------9---9---10--10--10----9---5---4------|
D|----7---7----5--5----------------------------------------------------------|
A|--------------------------5------7---7----8----8----8----7---3---2------|
E|-----------------------------------------------------------------------------|

toinen kitara:

e|-------------------------------------------------------------------------------------|
B|-------------------------------------------------------------------------------------|
G|-------------------------------------------------------------------------------------|
D|--10-10-9-10-9-10-9-10-9-10-9-7-5--7-7-5-7-5-7-5-7-5-7-5-7-9------|
A|--------------------------------------------------------------------------------------|
E|--------------------------------------------------------------------------------------|


ja vielä kolmas kitara vetää melko tyylitelyä leadia, jonka slideistä,
bendeistä 
ja ylipäänsä efekteistä en ole varma, mutta tässä on joka tapauksessa
äänet:

e|--------------------------------------------------------------------------------------|
B|-15-15-17-15---------------------------------------------------------------------|
G|------------------12-14----14-14-17-16-----------------------------------------|
D|-----------------------------------------------14-15--------------------------------|
A|---------------------------------------------------------------------------------------|
E|---------------------------------------------------------------------------------------|
 x2

viimeisellä kerralla: 
e|-----------------------------17-17--------------------------------------------------|
B|-15-15-17-15---------------------------------------------------------------------|
G|------------------12-14------------17-16-----------------------------------------|
D|-----------------------------------------------14-15--------------------------------|
A|---------------------------------------------------------------------------------------|
E|---------------------------------------------------------------------------------------|

lopuksi
e|----------------------17-19-20-22~------------------------|
B|--------------------------------------------------------------|
G|---14-16-17-19-------------------------------------------|
D|--------------------------------------------------------------|
A|--------------------------------------------------------------|
E|--------------------------------------------------------------|


3:06 
E5  C5  F#5  H5  x8


3:53
e|------------------------------------------------------------|
B|------------------------------------------------------------|
G|---------------------------9---10--9---10--9---10--9-10--12-| x4
D|-12-11---12-11---12-11-12--9---10--9---10--9---10--9-10--12-| 
A|-12-11---10-11---12-11-12--7----8--7----8--7----8--7--8--10-|
E|-10--9---10--9---10--9-10-----------------------------------|


tämän jälkeen (4:07) 

e|-----------------------------------------------------------------------------|
B|--10-10-10----8--8------------------------------------------------------|
G|--------------------------7------9---9---10--10--10----9---5---4------|
D|--7---7---7----5--5-------------------------------------------------------|
A|--------------------------5------7---7----8----8---
8----7---3---2------|
E|-----------------------------------------------------------------------------|
  x4


toinen kitara vetelee tuon päälle päälle:

e|-------------------------------------------------------------------------------------|
B|-------------------------------------------------------------------------------------|
G|-------------------------------------------------------------------------------------|
D|--10-10-9-10-9-10-9-10-9-10-9-7-5--7-7-5-7-5-7-5-7-5-7-5-7-9------|
A|--------------------------------------------------------------------------------------|
E|--------------------------------------------------------------------------------------|
 x4

ja sitten kahden kierron jälkeen kolmas kitara tuplaa:

e|---------------------------------------------------------------------------------------|
B|---------------------------------------------------------------------------------------|
G|--9-9-7-9-7-9-7-9-7-9-7-5-4--5-5-4-5-4-5-4-5-4-5-4-5-7-----------------|
D|---------------------------------------------------------------------------------------|
A|---------------------------------------------------------------------------------------|
E|---------------------------------------------------------------------------------------|
 x2 



4:30
Em | G | A | C  x6      




(Päivitetty 09.10.2007)


Muokkaa tabulatuuria »