CMX : Tabulatuurit : Rusalkai


Introkikkailu:

--------------------------------------------------
--------------------------------------------------
------2---2-----2---------2---------0---0---------
----2---2-----0---0-----0---0-----3---3-----------
--0---------1-------1-2-------2-3-----------------
--------------------------------------------------  X5


--------------------------------------------------
--------------------------------------------------
------0---0-----0---0-----0---0-----0---0---------
----4---4-----4---4-----4---4-----4---4-----------
--4---------4---------4---------4-----------------
--------------------------------------------------  X1


Seuraava mutella 4 kertaa:

---------------------------
---------------------------
---------------------------
---------------------------
--4-4-4-4-4-4-4-4-4-7-7-7--
--2-2-2-2-2-2-2-2-2-5-5-5--


---------------------------
---------------------------
---------------------------
---------------------------
--5-5-5-5-5-5-5-5-5-8-8-8--
--3-3-3-3-3-3-3-3-3-6-6-6--   X4



--------------------------------------------------
--------------------------------------------------
------2---2-----2---------2---------0---0---------
----2---2-----0---0-----0---0-----3---3-----------
--0---------1-------1-2-------2-3-----------------
--------------------------------------------------  X8


--------------------------------------------------
--------------------------------------------------
------0---0-----0---0-----0---0-----0---0---------
----4---4-----4---4-----4---4-----4---4-----------
--4---------4---------4---------4-----------------
--------------------------------------------------  X1


-------------------------
------5---5-----3---3----
----5---5-----3---3---3--
--0---------0------------
-------------------------
-------------------------  X19
mutella 4 kertaa:

---------------------------
---------------------------
---------------------------
---------------------------
--4-4-4-4-4-4-4-4-4-7-7-7--
--2-2-2-2-2-2-2-2-2-5-5-5--


---------------------------
---------------------------
---------------------------
---------------------------
--5-5-5-5-5-5-5-5-5-8-8-8--
--3-3-3-3-3-3-3-3-3-6-6-6--   X4



--------------------------------------------------
--------------------------------------------------
------2---2-----2---------2---------0---0---------
----2---2-----0---0-----0---0-----3---3-----------
--0---------1-------1-2-------2-3-----------------
--------------------------------------------------  X8


--------------------------------------------------
--------------------------------------------------
------0---0-----0---0-----0---0-----0---0---------
----4---4-----4---4-----4---4-----4---4-----------
--4---------4---------4---------4-----------------
--------------------------------------------------  X1



-------
-------
-------
-------
-4-4-4-
-2-2-2-  X1


---------
---------
---------
---------
-x-4-4-4-
-x-2-2-2-  X15



Hyvä biisi.
Hyvä levy.


(Päivitetty 06.10.2007)


Muokkaa tabulatuuria »