CMX : Tabulatuurit : Pretoriaanikyborgit

--------------------------------------------------
--------------------------------------------------
--------------------------------------------------
-2-2-2-2-2---2-2-2-2-2---2------------------------
-2-2-2-2-2---2-2-2-2-2---2------------------------
-0-0-0-0-0---0-0-0-0-0---0------------------------


--------------------------------------------------
--------------------------------------------------
--------------------------------------------------
-2-2-2-2-2---2-2-2-2-2---2-2-2--------------------
-2-2-2-2-2---2-2-2-2-2---2-2-2--------------------
-0-0-0-0-0---0-0-0-0-0---0-0-0--------------------    X4


Intron jälkeen:

--------------------------------------------------
--------------------------------------------------
--------------------------------------------------
--------------------------------------------------
-2-3---------------------0-2-3-------------0------      
------3-2---0-2-3-2-----------2---0-2-3----------- X4


-----------
-----------
-----------
-----------
-2-3-5-----
-----------

---------------------------------------------------
---------------------------------------------------
-9-9-9-9-9-9-5-5-5-5-5---5-5-5-5-5-5-5-5-5-5-5-5---
-9-9-9-9-9-9-2-2-2-2-2---5-5-5-5-5-5-4-4-4-4-4-4---
-7-7-7-7-7-7-3-3-3-3-3---3-3-3-3-3-3-3-3-3-3-3-3---
---------------------------------------------------  X2

Sama mutella 4 kertaa:
---------------------------------------------------
---------------------------------------------------
-9-9-9-9-9-9-5-5-5-5-5---5-5-5-5-5-5-5-5-5-5-5-5---
-9-9-9-9-9-9-2-2-2-2-2---5-5-5-5-5-5-4-4-4-4-4-4---
-7-7-7-7-7-7-3-3-3-3-3---3-3-3-3-3-3-3-3-3-3-3-3---
---------------------------------------------------  X4

---------------------------------------------------
---------------------------------------------------
-9-9-9-9-9-9-5-5-5-5-5---5-5-5-5-5-5-5-5-5-5-5-5---
-9-9-9-9-9-9-2-2-2-2-2---5-5-5-5-5-5-4-4-4-4-4-4---
-7-7-7-7-7-7-3-3-3-3-3---3-3-3-3-3-3-3-3-3-3-3-3---
---------------------------------------------------  X1







Sama mutella 3 kertaa:
---------------------------------------------------
---------------------------------------------------
-9-9-9-9-9-9-5-5-5-5-5---5-5-5-5-5-5-5-5-5-5-5-5---
-9-9-9-9-9-9-2-2-2-2-2---5-5-5-5-5-5-4-4-4-4-4-4---
-7-7-7-7-7-7-3-3-3-3-3---3-3-3-3-3-3-3-3-3-3-3-3---
---------------------------------------------------  X3

---------------------------------------------------
---------------------------------------------------
-9-9-9-9-9-9-5-5-5-5-5---5-5-5-5-5-5-5-5-----9-----
-9-9-9-9-9-9-2-2-2-2-2---5-5-5-5-5-5-4-4-----9-----
-7-7-7-7-7-7-3-3-3-3-3---3-3-3-3-3-3-3-3-----7-----
---------------------------------------------------  

Sitten tämä kuvio 8 kertaa:
(päälle tulee jotain kikkailua, täytyy lisätä myöhemmin)
--------------------------------
--------------------------------
--------------------------------
------9---------12--------------
-7-7---10-10-----9-9---5-5--6---
--------------------------------

--------------------------------
--------------------------------
--------------------------------
------9---------12--------------
-7-7---10-10-----9-9---5-5------
-------------------------------- X8

"Kikkailu"
----------------------------------------------
----------------------------------------------
-9-9-11-9-9-12 --------------------------
--------------------9-9---9-12-10-9-7----
----------------------------------------------
----------------------------------------------

----------------------------------------------
----------------------------------------------
-9-9-11-9-9-12 ---------------------11-----
--------------------9-9---10-10-12------
----------------------------------------------
----------------------------------------------

Sitten tämä:
----------------------
-8-8--12--10---8--8---
-9-9--12--11---9--9---
-9-9--12--12--10-10---
----------------------
----------------------

----------3-----------
--8--8-8--3--7--5--5--
--9--9-9--4--7--5--5--
--9--9-9--5--7--5--5--
--7--7-7--5--5--3--3--
----------3----------- X2

-----------
-----------
--5--4--2--
--5--4--2--
--3--2--0--
-----------

----------3-----------
--8--8-8--3--7--5--5--
--9--9-9--4--7--5--5--
--9--9-9--5--7--5--5--
--7--7-7--5--5--3--3--
----------3----------- 


--------------------------------
--------------------------------
--------------------------------
--7--5--4--4--4--4--4--4--4--4--
--3--3--3--3--3--3--3--3--3--3--
--------------------------------

Sit tämä mutella:
----------------------------------------------------
----------------------------------------------------
-9-9-9-9-9-9-5-5-5-5-5---5-5-5-5-5-5-5-5-5-5-5-5----
-9-9-9-9-9-9-2-2-2-2-2---5-5-5-5-5-5-4-4-4-4-4-4----
-7-7-7-7-7-7-3-3-3-3-3---3-3-3-3-3-3-3-3-3-3-3-3----
----------------------------------------------------  X5

----------------------------------------------------
----------------------------------------------------
-9-9-9-9-9-9-5-5-5-5-5---5-5-5-5-5-5-5-5------------
-9-9-9-9-9-9-2-2-2-2-2---5-5-5-5-5-5-4-4------------
-7-7-7-7-7-7-3-3-3-3-3---3-3-3-3-3-3-3-3------------
---------------------------------------------------- 

----------------------------------------------------
----------------------------------------------------
----------------------------------------------------
----------------------------------------------------
-0-2-3---------------------0-2-3-------------0------      
---------3-2---0-2-3-2-----------2---0-2-3----------  X1

----------------------------------------------------
----------------------------------------------------
----------------------------------------------------
----------------------------------------------------
-2-3---------------------0-2-3-------------0--------      
------3-2---0-2-3-2-----------2---0-2-3-------------  X3


-----------
-----------
-----------
-----------
--2-3-5----
-----------

---------------------------------------
---------------------------------------
---------------------------------------
---7---7---7---7---7---7---7---7-------
-5---5---5---5---5---5---5---5---------
---------------------------------------   X2


---------------------------------------
---------------------------------------
---------------------------------------
----7---7---7---7---3---3---3---3------
--5---5---5---5---1---1---1---1--------
---------------------------------------



---------------------------------------
---------------------------------------
---------------------------------------
--------------------7---7---7---7------
----5---5---5---5-5---5---5---5--------
--3---3---3---3------------------------


---------------------------------------
---------------------------------------
---------------------------------------
---------------------------------------
----3---3---3---3---5---5---5---5------
--1---1---1---1---3---3---3---3--------


----------------------
----------------------
----------------------
----------------------
----2---2---3---3-----
--0---0---1---1-------


------------------------------------
------------------------------------
------------------------------------
----7---7---7---7---7---7---7---7---
--5---5---5---5---5---5---5---5-----
------------------------------------


------------------------------------
------------------------------------
------------------------------------
----7---7---7---7---3---3---3---3---
--5---5---5---5---1---1---1---1-----
------------------------------------


------------------------------------
------------------------------------
------------------------------------
--------------------7---7---7---7---
----5---5---5---5-5---5---5---5-----
--3---3---3---3---------------------


------------------------------------
------------------------------------
------------------------------------
------------------------------------
----3---3---3---3---5---5---5---5---
--1---1---1---1---3---3---3---3-----

--------------------
--------------------
--------------------
--------------------
----2---2---3---3---
--0---0---1---1-----

----------------------------------
----------------------------------
----------------------------------
---7---7---7---7---7---7---7---7--
-5---5---5---5---5---5---5---5----
----------------------------------


Sit loppurypistys kahteen kertaan ja stop:

------------------------------------
------------------------------------
------------------------------------
------------------------------------
--7-7-7-7-7-7-7-7-8-8-8-8-8-8-8-8---
--5-5-5-5-5-5-5-5-6-6-6-6-6-6-6-6---


------------------------------------
------------------------------------
------------------------------------
------------------------------------
--5-5-5-5-5-5-5-5-7-7-7-7-7-7-7-7---
--3-3-3-3-3-3-3-3-5-5-5-5-5-5-5-5---


------------------------------------
------------------------------------
------------------------------------
------------------------------------
--3-3-3-3-3-3-3-3-5-5-5-5-5-5-5-5---
--1-1-1-1-1-1-1-1-3-3-3-3-3-3-3-3---


------------------------------------
------------------------------------
------------------------------------
------------------7-7-7-7-7-7-7-7---
--2-2-2-2-3-3-3-3-5-5-5-5-5-5-5-5---
--0-0-0-0-1-1-1-1-------------------


-------------------
-------------------
-------------------
--7-7-7-7-7-7-7-7--
--5-5-5-5-5-5-5-5--
-------------------


(Päivitetty 05.10.2007)


Muokkaa tabulatuuria »