CMX : Tabulatuurit : Kaikkivaltias

E|--------------------------------------|x4
B|--------------------------------------|
G|--------------------------------------|
D|---------5--------5--------5---4---7-4|
A|----5-7---7-5-7---7-5-7---7---5----|
E|--0-----------------------------------|


Eikö tuo intro menisi mieluummin näin:
e|------------------------------------------------------------------------|
B|------------------------------------------------------------------------|
G|------------------------------------------------------------------------|
D|------------------------------------------------------------------------|
A|------------10-------------10--------------10-----9-----12---------|
E|-0-10-12-----12-10-12-----12-10-12-----12----10-----14-----|


E|--------|
B|--------|
G|--------|
D|--------|
A|--------|
E|-8-7-5-3|


tai kuitenkin varmaan näin:
      
|----------------------------------------------------------------------------|
|----------------------------------------------------------------------------|
|-----h--h----------h--h---------h--h------------------------------------|
|-----^-^--5------^-^--5-----^-^---5----7----9----------------------|
|----0-5-7----7--0-5-7----7--0-5-7----7----7-----7-------------------|
|-0--------------------------------------------------------------------------|

Omaan korvaan se kuulosti tältä

|----------------------------------------------------------------------------|
|----------------------------------------------------------------------------|
|-----h--h----------h--h---------h--h------------------------------------|
|-----^-^--5------^-^--5-----^-^---5----4----7--4-------------------|
|----5-6-7----7--5-6-7----7--5-6-7----7----5-------------------------|
|-0--------------------------------------------------------------------------|



Tuota pari kertaa, toisella kertaa taustalla soittaa kvartin yläpuolella
oleva kitara

E|----------------------------------------|
B|----------------------------------------|
G|----------5---------5---------5---4--7-4|
D|----5-7-9---7-5-7-9---7-5-7-9---7---5---|
A|----------------------------------------|
E|----------------------------------------|

Sen jälkeen

E|-------------------------------------
B|-------------------------------------
G|-------------------------------------
D|-------------------------------------
A|-------------------------------------
E|-0-5-7-0-7-8-0-8-10-0-10-12-8-10-7-8-

E|-----------------|
B|-----------------|
G|-----------------|
D|-----------------|
A|-----------------|
E|-13-12-10-8-7-8-3|

Tässä alkuun, kohta tulee updatea

Alkurähinän jälkeen jotain Am Am+ | Am Am+ | Fm | Em

G5 E5 G5 E5 F5
Kohta yöstä aikain...

Am | F C ?
Kuningas nojaa...

Fm | Db | Ab | Cm
Valomuurin tuolla puolen...

**********
**********

Aloitetaanpas ihan alusta tämä homma.

Ehkä se alkuriffi olisi tällainen:

|----------------------------------------------------|
|----------------------------------------------------|
|----------------------------------------------------|
|----------------------------------------------------|
|-----------10------------10---------10----9----12-9-|
|-0-0h10h12----12-0h10h12----0h10h12----12---10------|

|---------|
|---------|
|---------|
|---------|
|-109-7-5-|
|-8-7-5-3-|

|---------------------------------------------------------|
|---------------------------------------------------------|
|---------------------------------------------------------|
|---------------------------------------------------------|
|-------------------------------------8--7--5--3--2-3-2---|
|-0-5-7-0-7-8-0-8-10-0-10-12-8-10-7-8-------------------3-|

Sitten se hiljaisempi osuus, "soolon" ajoitukset on luonnollisesti päin
perslettiä ja varmaan paljon muutakin.

  Am            G#m        Am            G#m
|-------------------------------------------------
|-5---5--6--5---4---5--4---5---5--6--5---4---5--4-
|-------------------------------------------------
|-------------------------------------------------
|-------------------------------------------------
|-------------------------------------------------

 F         Em        Am            G#m
-------------------------------------------7-|
---------------------5---5--6--5---9---5-----|
-2-------------------------------------------|
------4----5----2----------------------------|
---------------------------------------------|
---------------------------------------------|

Sitten "taivas alkaa punertaa":

|----------------------------------------|
|----------------------------------------|
|----------------------------------------|
|----------------------------------------|
|-2-2--2--2-2--2--2--2-2--2--2-0-2-5-4-0-|
|-0-0--0--0-0--0--0--0-0--0--0-----------|

"Kohta yöstä aikain":

|-----------------------------------------|
|-----------------------------------------|
|-----------------------------------------|
|-----------------------------------------|
|-5-2-2-2-2-2-5-2-2-2-2-2-7-3-3-3-3-3-3---|
|-3-0-0-0-0-0-3-0-0-0-0-0-5-1-1-1-1-1-1---|

"Kuningas nojaa":

| Am | Am | C | F |
jossa C-sointu on tällainen
|-3-|
|-1-|
|-0-|
|-2-|
|-3-|
|---|

"Valomuurin tuolla puolen";
Ensin tulee vain bassoäänet, jotka ovat seuraavat:

A G# A G# F E A G#

Ja sitten kitarat messiin;
Toinen tällaisilla voimasoinnuilla dempaten:

|---------------------------------|---|
|---------------------------------|---|
|---------------------------------|---|
|-----6-------5-------6-----------|---|
|-3---4---6---3---3---4---6---6---|-4-|
|-1-------4-------1-------4---3---|-2-|

Ja toinen soittaa jotain tällaista:

|--------------------------------------------------------------
|--------------------------------------------------------------
|------------------8------8---8------------------7------7---7--
|---5------5---5-6---6--6---6-----8------8---8-5---5--5---5----
|-3---3--3---3------------------6---6--6---6-------------------
|--------------------------------------------------------------

--------------------------------------------------------------
--------------------------------------------------------------
------------------8------8---8--------------------------------
---5------5---5-6---6--6---6-----8------8---8---8------8---8--
-3---3--3---3------------------6---6--6---6---5---5--5---5----
--------------------------------------------------------------

-------------------------------|
-------------------------------|
-------------------------------|
---6------6---6---6---6---6...-|
-4---4--4---4---4---4---4...---|
-------------------------------|

Sitten alkuriffejä taas vähän ja jälleen se hiljaisempi osio näillä
soinnuilla:

| Am | G#m | Am | G#m | F | Em | Gm | Fm |
Eli siis kaksi viimeistä sointua ovat vaihtuneet ja "soolo" menee
jotensakin näin:

|-17--17-15--15-17--17-19--19-17-15-17-19-20--16--16-----
|----------------------------------------------------16--
|--------------------------------------------------------
|--------------------------------------------------------
|--------------------------------------------------------
|--------------------------------------------------------

-17-15-17-19-17-15-17--19-17-15-19-17-15-17-20--16--16----
-------------------------------------------------------16-
----------------------------------------------------------
----------------------------------------------------------
----------------------------------------------------------
----------------------------------------------------------

-------------------------------------------------------------------------------|
-18------20--21-20--18--17-17------17------17-15-------15---17-15--14-14-------|
-------------------------------16------16---------12------------------------11-|
-------------------------------------------------------------------------------|
-------------------------------------------------------------------------------|
-------------------------------------------------------------------------------|
 
Sitten jynkytetään sointuja A5 ja G#5 ja sen jälkeen taas vähän
riffien toistoa.
Ennen kertosäettä tulee vielä soinnut Am, C, D ja D ja D ja...
Loppu menneepi tällaisin soinnuin (suluissa olevat voi soittaa jos niin
halajaa):

|----------------|
|-7-----8---10---|
|-7-----9---11---|
|-7-----9---12---|
|(5)---(7)-(12)--|
|----------------|

Toinen kitara voi soittaa vaikka sointuja D5, E5, D5.

Loppuu D:hen.

Voisko tuo lopun Rush (tai Kirosäkeet) -riffi olla:

|-5--(5)--7--9--|
|-7--(5)--8--10-|
|-7--(7)--7--9--|        ja päälle D-vitosta?
|-0--(0)--0--0--|
|------------------|
|------------------|

Virheitä varmaankin löytyy, joten korjailkaa pois. Kiitos ja näkemiin.
-HeMEH

(Päivitetty 19.09.2007)


Muokkaa tabulatuuria »