CMX : Tabulatuurit : Kuoleman risteyksestä kolme virstaa pohjoiseen

E|-----------|
B|-----------|
G|---0-------| ktr 2
D|-4---4-----|
A|-------2---|
E|-----------|

 

  vain 1. kerran
E|-----------------------|----------------------|
B|----------------h------|--h-----------h-------|
G|-7---6-4-----4--46---4-|--67-6---4----46---4--|
D|---------7-7-----------|-----------7----------|
A|-----------------------|----------------------|
E|-----------------------|----------------------|
 | 
E|--------------------|---------------------|
B|--------------------|---------------------|
G|--------------------|---------------------|
D|--------2---4-5-----|-------2---4---------|
A|------2-----------5-|-----2-------2---5---|
E|--0-----------------|-0-------------------|
 |                
E|--------------------|
B|--------------------|
G|--4---2-------------| 
D|--------5---4-2---2-|
A|----------------5---|
E|--------------------|
 |                      1,2,3                  4.
E|---------------------|---------------------|-----------------------------|
B|---------------------|---------------------|-----------------------------|
G|---------------------|---------------------|-----------------------------|
D|---------------------|---------------------|-----------------------------|
A|-2-2-2-2-2-2-2-2-2-2-|-2-2-2-2-2-2-2-2-2-2-|-2-2-2-2-2-2-2-1-0-----------|
E|-0-0-0-3-0---3-0-3-3-|-0-0-0-3-0-0-3-0-3-3-|-0-0-0-3-0-0---------3-2-1---|
 |   
E|---------------7-----------5--------------------|
B|-5-7-8-7-5-7-8---8-7-5-7-8---8-7-5-7-8-7-5---7--|
G|-------------------------------------------7----|
D|------------------------------------------------|
A|------------------------------------------------|
E|------------------------------------------------|



E|------------------------------------------|-------------|
B|-----7---7---(7)-------7---7---(7)--(7)---|---7---(7)---|
G|-----9---9b11r9--------9---9b11r9b11r9----|---9b11b9----|
D|------------------------------------------|-------------|
A|------------------------------------------|-------------|
E|------------------------------------------|-------------|
 |					    |             |
E|-7-x----------7-x-------------------------|-7-----------|
B|-7-x----------7-x-------------------------|-8-----------|
G|-7-x----------7-x-------------------------|-7-----------|
D|-9-x----------9-x-------------------------|-9-----------|
A|------------------------------------------|-------------|
E|------------------------------------------|-------------|


E|-----------------|
B|-----------------|
G|-----------------|
D|-----8-------7---|
A|-5---6---3---5---|
E|-3-------1-------|

E|----------------------------------|
B|----------------------------------|
G|----------------------------------|
D|---------88888888--------77777777-|
A|-55555555666666663333333355555555-|
E|-33333333--------11111111---------|


E|------------------------------------|------|
B|------------------------------------|------|
G|------------------------------------|------|
D|-2---22---87---65-------2---87---65-|-2----|
A|-2---22---65---43---22222---65---43-|-2----|
E|-0---03---65---43---00003---65---43-|-0----|
                      
 

	*=bendit kammella					
E|-------------*--*---------------*--*--*--*-----|
B|-------12--12b11r12-------12--12b11r12b11r12---|
G|-------12--12b11r12-------12--12b11r12b11r12---|
D|-----------------------------------------------|
A|-----------------------------------------------|
E|-----------------------------------------------|
 |						 |
E|-----------------------------------------------|
B|-7-7-7----------------7-7----------------------|
G|-7-7-7----------------7-7----------------------|
D|-9-9-9----------------9-9----------------------|
A|-7-7-7----------------7-7----------------------|
E|-----------------------------------------------|



E|-------------------------|
B|-------------------------|
G|-------------------------|
D|-----4---5---------------|
A|-2---2---3---5---4---3---|
E|-0-----------3---2---1---|


E|------------------------------------------------------------------|
B|------------------------------------------------------------------|
G|------------------------------------------------------------------|
D|-----------------44444444444444445555555555555555-----------------|
A|-2222222222222222222222222222222233333333333333335555555544443333-|
E|-0000000000000000--------------------------------3333333322221111-|


Muutamasta kohdasta en ole aivan varma ja paria itsestään selvää 
riffin lopetusta en jaksanut merkitä. Vitutti ja väsytti. 
Saatte kyllä itse ne selville vaivatta. Tarkkana alussa tahtilajissa.


(Päivitetty 09.12.2006)


Muokkaa tabulatuuria »