CMX : Tabulatuurit : Valoa nopeammat koneet

intro: F C

           Fmaj7               c   
kylmä kuin metalli, tyhjä kuin sydän
Fmaj7                       c
minä olen matkalla takaisin pimeään
           Fmaj7               c   
Kylmä kuin metalli, tyhjä kuin sydän
        G                  Dm    Am
Ei sitä vielä nää, ei sitä vielä nää

           Fmaj7              c 
maaliskuun aurinko, älä meitä hylkää
          Fmaj7                 c          
kun päivä pitenee, niin vähäksi aikaa
         Fmaj7              c
tuulessa pakkaslumi leikkii, vaikka pian sulaa
        G                  Dm    Am
ei sitä vielä nää, ei sitä vielä nää 

   Em                 G
ja ennen kuin aurinko jäätyy
   A            Em
se palaa hetken kuumemmin
Em                    G
ja ennekuin silmämme sulkeutuu
     A                    
mitä kaikkea ne vielä näkevät

           Fmaj7               c  
kuuma kuin metalli, täysi kuin sydän
Fmaj7                       c
minä olen matkalla takaisin valoon
           Fmaj7               c
kuuma kuin metalli, täysi kuin sydän
        G                  Dm    Am
ei sitä vielä nää, ei sitä vielä nää 

Fmaj7 c
joskus 
          Am        Em      Fmaj7
yltää tuo valo tännekin
        c    
ja minä muistan paikkoja 
Am            Em
joissa en ole käynyt  


Saatoin korjata kertsin tai minkä lieneekään 
(ja ennen kuin aurinko jäätyy...), 
c-soinnun väärin tai oikein E-molliksi. 
Ei voi tietää mutta sellainen kutina on että se olisi Em. 

-------------------------------------------------------------------------

 Intro
e|-----------------|   |------|
B|-/10--8--3-3-/5--|   |-5//1-|
G|-----------------|x2 |------|
D|-----------------|
A|-----------------|
E|-----------------|

 Säkeistö             x3       Kerto
e|---------------------|---------------1-----0--|
B|-----1---------------|---------------2-----1--|
G|---2---2--0--------0-|---------------3-----2--|
D|-3---------------2---|-3-2-0-0--0----0-----2--|
A|-------------2-3-----|-------2--2----------0--|
E|---------------------|-------3--3-------------|

 Välisoitto
e|---------------------------------------|
B|-8--3--2--0--8--3--2--5--12--10---8--5-|
G|---------------------------------------|
D|---------------------------------------|
A|---------------------------------------|
E|---------------------------------------|

 Soolo
 
 Kitara1
e|-------------------------------------------------------------------------|
B|--------------2-2------------------------------------------2~----5-------|
G|-2-2h4-2-4---------4-4--------4-2----2-4-2---2-4-2---2-4-2---2-4---2-44~-|
D|-----------------------2-2---------2-------2-------2---------------------|
A|-------------------------------------------------------------------------|
E|-------------------------------------------------------------------------|
 Kitara2
e|--------------------------------------------------------------------|
B|-----------10b12-----------10-12-10-10b12---------------------------|
G|--------------------------------------------------------------------|
D|--------------------------------------------------------------------|
A|--------------------------------------------------------------------|
E|--------------------------------------------------------------------|

 Kitara1
e|--------10-9~--------10--7-------------------------------9----------|
B|-5/8/10---------9-10--------10--8-8~\0----------------10---10~\0----|
G|------------------------------------------9-12-9-9-12---------------|
D|--------------------------------------------------------------------|
A|--------------------------------------------------------------------|
E|--------------------------------------------------------------------|
 Kitara2
e|----------14b15r-12-14--7-9b10r-7----------------------14-14b15r-12-|
B|----------------------------------8---------------------------------|
G|--------------------------------------------------------------------|
D|--------------------------------------------------------------------|
A|--------------------------------------------------------------------|
E|--------------------------------------------------------------------|

 Kitara1
e|----15-17-19---19b20r----8b10--8-----------------------10-8----------------------|
B|-17---------17--------------------10-8-10--8----8-----------10-8-10-8----8-------|
G|---------------------------------------------11---7-9-----------------11---11-7-9|
D|---------------------------------------------------------------------------------|
A|---------------------------------------------------------------------------------|
E|---------------------------------------------------------------------------------|
Kitara2
e|---7------7----9b10r-7----------------------------------------------|
B|-----------------------8-------8~-----------------------------------|
G|--------------------------------------------------------------------|
D|--------------------------------------------------------------------|
A|--------------------------------------------------------------------|
E|--------------------------------------------------------------------|

 Kitara1
e|-------------------------------------------------------|
B|---7---8-----------------------------------------------|  tämä osa on
vajavainen,
G|-9---9---9~-----\0----2--2h4p2h4p2---/9-7-6-----\2-----|  säveliä ei
meinaa erottaa
D|-------------------2-----------------------------------|  millään
A|-------------------------------------------------------|
E|-------------------------------------------------------|
 Kitara2
e|---------------57-5----5-------------------------------|
B|---------55-78-----7-78--8~-7-5~-----------3p2p0h2-----|
G|--------------------------------------2----------------|
D|-------------------------------------------------------|
A|-------------------------------------------------------|
E|-------------------------------------------------------|

Basso ennen viimeistä säkeistöä
D|---------------------------------------|
A|---------------------------------------|
E|-8--5--3--0--------------------------------|

ja kitara
e|----------------------|
B|----------------------|
G|----------------------|-> säk x1
D|--------------2-3-5-2-|
A|------------3---------|
E|----------------------|

-Lead kitara ja soolo: Niko L.

(Päivitetty 02.09.2006)


Muokkaa tabulatuuria »