CMX : Tabulatuurit : Vainajala

Riff.1 (00:00-01:22)
|------3-0--------|
|----1------3-----|
|--2----------0h1-|
|-----------------|
|-----------------|
|-----------------|

Fill.1 (00:27-01:22)
|-------0----------|
|-------10----8----|
|----------------5-|
|--7---------------|
|------------------|
|------------------|

Riff.2 (01:22-01:31)
|------5-----7-----8-----7-----0-------5-----7---------7---0-------|
|----6---6-----6-----6-----6-----6---6---6-----6-----6---6---6-6/0-|
|--7-------7-----7-----6-----6-----5-------5-----5-4---------------|
|------------------------------------------------------------------|
|------------------------------------------------------------------|
|------------------------------------------------------------------|

Ehdottaisin tähän riffi kakkoseksi ennemminkin:
|------5-----7-----8-----7-----0-------5-----7-----8---7---0-------|
|----6---6-----6-----6-----6-----6---6---6-----6-----6---6---6-----|
|--7-------7-----7-----7-----7-----7-------7-----7-------------7/--|
|------------------------------------------------------------------|
|------------------------------------------------------------------|
|------------------------------------------------------------------|
-tan

Fill.2 (01:22-31)
|-----0---17--15-|
|--6--10---------|
|----------------|
|----------------|
|----------------|
|----------------|

Riff.1 w/ Fill.1 (01:31-01:40)

Riff.3 (01:40-01:47)
|--------0-----0-----------|
|------1---1-----1---------|
|----2-------2-----------1-|
|--3-------------------0---|
|--------------------2-----|
|------------------0-------|

Chorus (01:47-02:23) 
|  A5  | F5 D5 |

Kitara 2.
|-------------------------------------------------------------------------|
|-------------------------------------------------------------------------|
|------------------14-14-14-9-9-9-12-12-5-5-5-5-5-5-5-5-7-7-7-7-7-7-10-10-|
|--7-7-7-7-7-7-7-7--------------------------------------------------------|
|-------------------------------------------------------------------------|
|-------------------------------------------------------------------------|

|-------------------------------------------------------------------------|
 
|-------------------------------------------------------------------------|
 
|--9-9-9-9-9-9-9-9-14-14-14-9-9-9-12-12-5-5-5-5-5-5-5-5-7-7-7-7-7-7-10-10-|
|-------------------------------------------------------------------------|
 
|-------------------------------------------------------------------------|
 
|-------------------------------------------------------------------------|
 

Riff.1  (02:23-02:43)
| C5 H5 | C5 E5 | C5 H5 | C#5 E5 | C5 H5 | C#5 E5 | C5 H5 | E5 

Toinen kitara näppäilee mukana tyyliin : 
   C5      H5      C5      E5
|----------------------------|
|----------------------------|
|------5-------4-------5-----|
|----5---5---4---4---5---5-2-|
|--3-------2-------3-------2-|
|--------------------------0-|

Riff.1 (02:43-03:38)
Toinen kitaristi löytää tässä kohtaa efektinappulan pedaalistaan.

Riff.2 w/ Fill.2 (03:38-03:47)

Riff.1 w/ Fill.1 (03:47-03:56)

Riff.3 (03:56-04:03)

Chorus (04:03-04:57)

Riff.4 (04:57-06:05) 
|------------------------------|
|------------------------------|
|------------------------------|
|------2-4-5-5-2-4-4-----------|
|----2---------------5-3-3-3-3-|
|--0---------------------------|

|------------------------------|
|------------------------------|
|--------------4----------------|
|------2-4-5-5---4-4-----------|
|----2---------------5-3-3-3-3-|
|--0---------------------------|
(eka kolme kertaa toi ylempi sit alempi kunnes feidaa)
(Fadeout)

Korjaajan likaiset haalarit veti ylleen : 
Matti 'MM' Manninen

(Päivitetty 15.08.1999)


Muokkaa tabulatuuria »