CMX : Tabulatuurit : Pedot

Intron laittaisin näin:

  Em                              Esus2
e|7-7-7-7-7-7-7-7-7-7-7-7-7-7-7-7-7-7-7-7-7-7-7-7
H|8-8-8-8-8-8-8-8-8-8-8-8-8-8-8-8-7-7-7-7-7-7-7-7
G|9-9-9-9-9-9-9-9-9-9-9-9-9-9-9-9-9-9-9-9-9-9-9-9
D|9-9-9-9-9-9-9-9-9-9-9-9-9-9-9-9-9-9-9-9-9-9-9-9
A|-----------------------------------------------
E|-----------------------------------------------
                  Hm                               
e|7-7-7-7-7-7-7-7-7-7-7-7-7-7-7-7-7-7-7-7-7-7-7-7
H|7-7-7-7-7-7-7-7-7-7-7-7-7-7-7-7-7-7-7-7-7-7-7-7
G|9-9-9-9-9-9-9-9-7-7-7-7-7-7-7-7-7-7-7-7-7-7-7-7
D|9-9-9-9-9-9-9-9-9-9-9-9-9-9-9-9-9-9-9-9-9-9-9-9
A|-----------------------------------------------
E|-----------------------------------------------

  Hm/C
e|7--7--7--7--7--7--7--7--7--7--7--7--7--7--7--7
H|7--7--7--7--7--7--7--7--7--7--7--7--7--7--7--7
G|7--7--7--7--7--7--7--7--7--7--7--7--7--7--7--7
D|10-10-10-10-10-10-10-10-10-10-10-10-10-10-10-10
A|----------------------------------------------
E|----------------------------------------------


Ja intron piälle:


e|-12------12------12------12------
H|----12-------10-------8------7---
ja viimeisellä kerralla:
e|-12------12------12------12------------
H|----12-------10-------8------7--10--13-


Koukkuhammasriffi:

D|-----------------------------
A|--------5-------------3------
E|5-5-8-5---8-5-3-3-6-3---6-3--

Koukkuhampaan päälle jonkinlaista tiluttelua E:stä

Sitten se "vitun kova":


e|-----------------------------------------------
H|-----------------------------------------------
G|-----------------------------------------------
D|-5-4-2-7---5--5--5--5-5-4-2-7--5--5--5--5------
A|-5-4-2-7---5--5--5--5-5-4-2-7--5--5--5--5------
E|-3-2-0-5---3--3--3--3-3-2-0-5--3--3--3--3------

Vai olisiko sittenkin näin:
|--------------------------|
|--------------------------|
|--------------------------|
|--------------------------|
|-2-2-5---4--3--2--2-5-6-7-|
|-0-0-3---2--1--0--0-3-4-5-|
      .   .  .  .        .


Ja sitten se "helvetin kova" (!):


e|------15b17------------------
H|---------------------15b17---
G|-----------------------------  x4
D|-2-2----------2-2------------
A|-2-2----------2-2------------
E|-0-0----------0-0------------


Ja "helvetin kovan toinen kitara tulee päälle toisella toistolla:


e|----------------------
H|----------------------
G|---------------------- x4
D|-2-2-7-6-5-2-2-5-6-7--
A|-2-2-7-6-5-2-2-5-6-7--
E|-0-0-5-4-3-0-0-3-4-5--

Ja tämä taasen menisi vissiinkin näin:

|---------------------|
|---------------------|
|---------------------|
|---------------------|
|-2-2-5-4-3-2-2-5-6-7-|
|-0-0-3-2-1-0-0-3-4-5-|

Sitten tuleekin koukkuhammasriffi, minkä jälkeen jotain jamittelua
"helvetin kovalla" ja "vitun kovalla" riffillä. Sen jälkeen palataan
introon.

Fucking eh!
------------------------------------------------
Tabulatuuri muilta osin Erkka Mykkäsen tekemä, mutta korjailin introa.

Jyri Lukkala
------------------------------------------------
Lisäsin omat näkemykseni sekä vitun että  helvetin kovasta ja
täydensin intron toista kitaraa parin nuotin verran.
-HM

(Päivitetty 11.12.2005)


Muokkaa tabulatuuria »