CMX : Tabulatuurit : Mustat siivet yli taivaan

Introksi voi soitella noin pari kertaa näin.

                                                                           
                                                                           
                     
---------0---------------0-------------------0-------------------0-----------
-------0---0-----------0---0---------------0---0---------------0---0---------
-----6-------6-------6-------6----------10-------10---------10-------10------
---6-----------6---6-----------6-----10-------------10---10-------------10---
-4---------------4---------------4-8-------------------8-------------------8-
-----------------------------------------------------------------------------

Toisella kierrolla jälkimmäinen soitetaan seuraavasti
                                   D#5
-----------0-------------------(0)---
---------0---0---------------0-------
------10-------10---------10---------
---10-------------10---10------------
-8-------------------8---------------
-------------------------------------

Räyhä seuraavalla sointukululla

|C#|C# Bbm|Fm|Fm D#|

Ja toinen kitara taitaa räyhätä jokseenkin näin:
e|-----------------------------------
H|-----------------------------------
G|-----------------------------------
D|6-66666-6-66666-------------------- 
A|4-47474-4-47474-3-33333-3-33333----
E|----------------1-14141-1-14141----

Ja tuo tulee x2, paitsi toisella kerralla x4

A-osa
Basistina en ole varma tuosta näppäilystä mutta suurinpiirtein tähän
malliin.

Am                   G/H                C                   D
--------------------------------------------------------------------------------
------------0------------------0-------------------0-------------------0--------
-------0------0----0------0------0----0-------0------0----0-------0------0----0-
----10---10-----10-----12---12-----12------10---10-----10------12---12-----12---
-12------------------9------------------10------------------12------------------
--------------------------------------------------------------------------------

viimeisellä kerralla kaksi tahtia D:tä

Bridge |Am|Em|F|C H/G|Am|Em|F|C H/G|Am G|F|F|

Kertsi |C D G|G|Em|Hm|

Muusikonrenttu teki tabulatuurin, lisäsin ainoastaan 2. kitaran tuohon
räyhäosioon.


(Päivitetty 09.12.2005)


Muokkaa tabulatuuria »