CMX : Tabulatuurit : Uusi Ihmiskunta

Intro:
B5 B5 x 2 tahtia

Verse:
B5 B5 E5 E5 F#5 F#5 x 2 tahtia
D5 D5 A5 A5 x 2 tahtia
B5 B5 E5 E5 F#5 F#5 x 2 tahtia

Chorus:
A5 A5 C5 C5 G5 G5 D5 D5 x 2 tahtia 
A5 A5 C5 C5 G5 G5 D5/A D5/A
A5 A5 C5 C5 G5 G5 D5 D5


Bassofilli (kertsin jälkeen):
|----------------------------------|
|----------------------------------|
|----------------------------------|
|----------------------------------|
|------------------------------7-9-|
|-7-7-----7-7-----7-7-----7-10-----|

|----------------------------------|
|----------------------------------|
|----------------------------------|
|----------------------------------|
|-----------------------------2-4--|
|-7-7-----7-7-----7-7---0-2-5------|

C-osan lopussa on F. Keksikää loput.

(Päivitetty 25.10.2005)


Muokkaa tabulatuuria »