CMX : Tabulatuurit : Suljettu astia

SULJETTU ASTIA

(p = palm mute)

                                 (rummut&basso)
|-----------------------------------------------------------------|
|-----------------------------------------------------------------|
|---------------------------------2-2-2-2-2-2-2-2-2-2-2-2-2-------|
|-----------------------------------------------------------3-3-3-|
   "Ota, juo tästä", sanoin, ja  löin auki ranteeni

|-----------------------------------------------------------------| 
|-----------------------------------------------------------------|
|---------------------------------2-2-2-2-2-2-2-2-2-2-2-2-2-------| x3
|-0-0-0-0-0-0-0-0-0-0-0-0-0-1-1-1---------------------------3-3-3-|
    isäni hyvällä veitsellä mitäpä en tekisi vuoksesi...

 (kitara tulee mukaan)
|-------||-----------------------------------------------------------------|
|-------||-----------------------------------------------------------------|
|-------||-----------------------------------------------------------------|
|-------||---------------------------------4-4-4-4-------------------------|
x2
|-5-5-5-||-2-2-2-2-------------------3-3-3-2-2-2-2-------------------5-5-5-|
|-3-3-3-||-0-0-0-0-------------------1-1-1---------------------------3-3-3-|
  p p p      p p                     p p p   p p                     p p p
           tule juomaan jos sinun on jano... tule juomaan jos sinun on
jano...

  Filli
|--------------------|
|--------------------|
|--------------------|
|-9-9-8--------------|
|-7-7-6-8--7--2--4-4-|
|-------6--5--0--2-2-|

 Kertosäe:
  A5              F#m             E               D5
|-----------------------------------------------------------------|
|-----------------------------------------------------------------|
|-------------------------------------------------5-5-5-5-5-5-5-5-| \
|-5-5-5-5-5-5-5-5-2-2-2-2-2-2-2-2-0-0-0-0-0-0-0-0-----------------|  |
                                                                     |
|-----------------------------------------------------------------|  |x4
|-9h10-10-10-9h10-10-12p10-9p10...tms. jne.-----------------------|  |
|-----------------------------------------------------------------|  |
|-----------------------------------------------------------------| /
|---------------------------------------------------2.kitara------|
|-----------------------------------------------------------------|
  Suljettu astia on tää olento
  Suljettu astia on tää olento
  Suljettu astia, sen vakavuudessa on tahto paeta tyhjyyden pyörästä
  Suljettu astia, sen vakavuudessa on tahto paeta tyhjyyden pyörästä


 Välisoitto:
|-------------|
|-------------|
|-------------|
|-5-6---4-5---|x4
|-5-6---4-5---|
|-3-4-x-2-3-x-|   (x-kuoleta)
Pakko päästä pois!!

|-------------|
|-------------|
|-------------|
|-5-6---4-5---|x4
|-5-6---4-5---|
|-3-4---2-3---|


    			2.Säe:
        
|-----------------------------------------------------------------|
        
|-0-------------------------------4-------------------------------|
        
|-1-------------------------2-----4------------------------4------| 
        
|-2-------------------------3-----4------------------------5------| \   \
        
|-2-------------------------3-----2------------------------5------|  |   |
        
|-0-------------------------1------------------------------3------|  |   |
                                                                           
  |x2 |
        
|-----------------------------------------------------------------|  |   |
        
|-----------------------------------------------------------------|  |   |
        
|---------------------------------2-2-2-2-2-2-2-2-2-2-2-2-2-------| /   
|x4
        
|-0-0-0-0-0-0-0-0-0-0-0-0-0-1-1-1---------------------------3-3-3-|      |
                                                                           
      |
 (2. kitara tulee mukaan)                                                  
      |
|-------||-----------------------------------------------------------------|
     |
|-------||-----------------------------------------------------------------|
     |
|-------||-----------------------------------------------------------------|
     |
|-------||---------------------------------4-4-4-4-4-4-4-4-4-4-4-4-4-------|
    /
|-5-5-5-||-2-2-2-2-2-2-2-2-2-2-2-2-2-3-3-3-2-2-2-2-2-2-2-2-2-2-2-2-2-5-5-5-|
|-3-3-3-||-0-0-0-0-0-0-0-0-0-0-0-0-0-1-1-1---------------------------3-3-3-|
 *-----*  *--------------------------------------------------------------*
demppaa!
		Mustimpina hetkinä kun meillä on vain toisemme...

 (1.kitara vaihtaa soinnut tähän)
|-------||-----------------------------------------------------------------|
|-------||-----------------------------------------------------------------|
|-------||---------------------------------4-----4-------------------------|
|-------||-2-----2-------------------------4-4-4-4-------------------------|
x2
|-5-5-5-||-2-2-2-2-------------------3-3-3-2-2-2-2-------------------5-5-5-|
|-3-3-3-||-0-0-0-0-------------------1-1-1---------------------------3-3-3-|
  p p p      p p                     p p p   p p                     p p p
		Kuinka päästä täältä pakoon... kuinka päästä täältä
pakoon...


 Filli

 Kertosäe (x6)


 Välisoitto:
|-------------|
|-------------|
|-------------|
|-5-6---4-5---|x4
|-5-6---4-5---|
|-3-4-x-2-3-x-|
Pakko päästä pois!!

Outro:
|-------------|
|-------------|
|-------------|
|-------------|x8
|-5-6---4-5---|
|-3-4-0-2-3-0-|
            *   (jää viimeisellä kerralla pois)


(Päivitetty 15.08.1999)


Muokkaa tabulatuuria »