CMX : Tabulatuurit : Nahkasiipi

Kappalehan on tabutettavaksi vaikeahko, mutta tässä luurankoa. 


Intron 1. citara:

e|------------------------------------------|
H|------------------------------------------|
G|------------------------------------------|
D|------------------------------------------|
A|--7-5---5----------*----------------------|
E|------7---7-5-3-5-5-6-5-3-5-3-1-----------|


* = 2. citara tulee mukaan


Intron 2. citara:

e|------------------------------------------|
H|------------------------------------------|
G|--9/10-7/6--7--9--4-----------------------|
D|--9/10-7/6--7--9--4-----------------------|
A|--7/8--5/4--5--7--2-----------------------|
E|------------------------------------------|

1. citara jatkaa:

e|------------------------------------------|
H|------------------------------------------|
G|--7-8-5-4----8-7-4------------------------|
D|------------------------------------------|
A|------------------------------------------|
E|------------------------------------------|

EDIT
2. kitara voisi soittaa 1. kitaran tilutusriffin päälle ja versessä
näin: 
D|--4----4--2--2--4--4--2---|
A|--4----4--2--2--4--4--2---| x3   Kolmannen kerran jälkeen:
E|--2----2--0--0--2--2--0---|      E|--5----7--0--5--7--8--0---|

- Taneli

Silta: F#5, E5, C#5, D5

Ja menisköhän kertsin soinnut jokseenkin F#m, A, E ja D ?

-Lassi


(Päivitetty 09.01.2005)


Muokkaa tabulatuuria »