CMX : Tabulatuurit : Sika ja perkele

  Am                                                  F
------------------------------------------------------------------------------------
----------1-----1----------------1-------1----------------1-----1-------------1---1-
------2-----2-----2---------2-------2--------2-------2------2------2-----2----2---2-
---2---------------------2-------------------------3---------------------3----------
------------------------------------------------------------------------------------
------------------------------------------------------------------------------------

  paatos joka päivä
        sika ja perkele


Bb                           F                        C
------------------------------------------------------------------------------------
----------3-------3------------1-----1----------------1-----1------------1------1---
------3------3-------3-----2-----2-----2--------0------0-----0------0------0------0-
-------------------------3----------------------------------------------------------
--1-------------------------------------------3---------------------3---------------
------------------------------------------------------------------------------------
                           kärsimys ja sika
                           perkele ja synti.....tänttänränttää!!!

Tässä muutamia nuotinnoksia, joita aikani ratoksi värkkäilin. 
Mahdollisia virheitä pyydän etukäteen anteeksi. Eikun soittelemaan...

Ja tänttänränttäähän vedetään intron soinnuilla
(niinkuin kukaan ei sitä olisi huomannut) ja sitten
me teemme sen, elämme. Elämme siis näin:

e:|-------------------------------------<
h:|-------------------------------------<
g:|-------------------------------------<
d:|----------88888888----------99999999-<
a:|-77777777-66666666-88888888-77777777-<
e:|-55555555----------66666666----------<
  
Sitten ei kaihdeta tuulta luultavasti Deestä,
ja sitten ei hukuta veteen jossakin soinnussa.
Ja se rytmi-ilottelu soitetaan näillä soinnuilla:

D  (C#)| C (C#)|
Sulut meinaa sitä että ko. sointu soitetaan lyhyesti
yhdellä alaslyönnillä 4. tahdin lopussa.
Ja ne soinnut kannattaa ottaa niin että Dee 10. nauhalta C# ysiltä ja C
kasilta. Täältä tähän!

(Päivitetty 15.08.1999)


Muokkaa tabulatuuria »