CMX : Tabulatuurit : Lepattajat (basso)

alku
G----------------------------------------------
D----------------------------------------------
A----------------------------------------------
D-5-5------------------------------------------


G |----------------------------------------------
D |----------------------------------------------
A |----------------------------------------------
D |5-5--3-5--3--5-5--3-5--3--5-5--3-5--3--5-5--3-5
  toistuu


verse:

G |-----------------------------------------------
D |-----------------------------------------------
A |-----------------------------------------------
D |5-5-3-5-3--5-5-3-5--3--5-5--3-5--3--5-5-3-5-6-0


bridge1 (ensimmäisellä kerralla):

G |----------------------------------------------
D |----------------------------------------------
A |----------------------------------------------
D |1-1-1-1-1-1-1-1-0-0-0-0-0-0-0-0-5-5-5-5-5-5-5-5-3-3-3-3-3-3-3-3-|


G |--------------------------------|
D |--------------------------------|
A |--------------------------------|
D |1-1-1-1-1-1-1-1-0-0-0-0-0-0-0-0-|
  
   

bridge2 (toisella kerralla):

G |-----------------------------------------------
D |-----------------------------------------------
A |-----------------------------------------------
D |1-1-1-1------0-0-0-0------5-5-5-5------3-3-3-3-
  
G |--------------------------|
D |--------------------------|
A |--------------------------|
D |1-1-1-1------0-0-0-0------|
      


bridge3 (kolmannella kerralla):


G |----------------------------------------------|
D |----------------------------------------------|
A |----------------------------------------------|
D |1-------0-------5-------3-------1------0------|

 "kertsi":


G |---------------------------|
D |---------------------------|
A |---------------------------/
D |5-5-5-3-3-3-2-2-2-1--1--1--|
   
välihärötysriffi:

G |------------------|
D |------------------|
A |------------------|
D |5--3--4--2--3--1--|

rauhallisesta kohdasta en saanut selvää.
 
loppuriffi:


G |------------------------------
D |------------------------------
A |------------------------------
D |3-5--3-5--3-5--3-5--3-5--3-5--
  veivataan biisin loppuun asti

Eiköhän tossa oo E tiputettu D:ksi.
 

(Päivitetty 25.05.2004)


Muokkaa tabulatuuria »