CMX : Tabulatuurit : Palvelemaan konetta

intro:

e-|---------------|
H-|---------------| x8
G-|---------------|
D-|-4-4-4-4-4-2-5-|
A-|-2-2-2-2-2-0-3-|
E-|---------------|

1. säkeistön bassokuvio

G-|-------------------------------------------------|
D-|-------------------------------------------------| x2
A-|-2-2-2-2--------5---5-------------------7---7----|
E-|-------------------------3-3-3-3-----------------|

                                   1.         2-
G-|-------------------------------|----------|---------------------------------|
D-|-------------------------------|----------|---------------------------------|
A-|-2-2-2-2----5---5--------------|-7---7----|-7---7---7---7---7---7---7---7---|
E-|---------------------3-3-3-3---|----------|---------------------------------|


e-|---------------------------------------------------------|
H-|-----5-7-5-------5-7-5-----------5-8-5-------5-8-5-------|
G-|-4-7-------7-4-7-------7-4-7-4-7-------7-4-7-------7-4-7-|
D-|---------------------------------------------------------|
A-|---------------------------------------------------------|
E-|---------------------------------------------------------|

e-|-------------------------------------------------------------------------------------------|
H-|-----5-7-5-------5-7-5-----------5-8-5--------5-8-5-------5-8-5-------5-8-5--------5-8-5---|
G-|-4-7-------7-4-7-------7-4-7-4-7-------7-4-7--------7-4-7-------7-4-7-------7-5-7--------7-|
D-|-------------------------------------------------------------------------------------------|
A-|-------------------------------------------------------------------------------------------|
E-|-------------------------------------------------------------------------------------------|

bridge:
H5                  G5               E5
Pyörre on hirmuinen, vahva sen voima on
H5                G5      E5
Kurimus kauhuinen voittamaton

kretsi:
    Hm                              G               Em
e-|-----------------------------------------------------------------|
H-|-----------------------------------------------------------------|
G-|-xxxx4-4-xxxx4-4-xxxx4-4-xxxx4-4-xxxx7-7-xxxx7-7-xxxx9-9-xxxx9-9-|
D-|-----------------------------------------------------------------|
A-|-xxxx2-2-xxxx2-2-xxxx2-2-xxxx2-2-xxxx5-5-xxxx5-5-xxxx7-7-xxxx7-7-|
E-|-----------------------------------------------------------------|

    Hm                                      G                   Em
e-|---------------------------------------------------------------------------------|
H-|---------------------------------------------------------------------------------|
G-|-xxxx11-11-xxxx11-11-xxxx11-11-xxxx11-12-xxxx14-14-xxxx14-14-xxxx16-16-xxxx16-16-|
D-|---------------------------------------------------------------------------------|
A-|-xxxx9--9--xxxx9--9--xxxx9--9--xxxx9--10-xxxx12-12-xxxx12-12-xxxx14-14-xxxx14-14-|
E-|---------------------------------------------------------------------------------|


interlude:

e-|---------------------------------------------------------|
H-|---------------------------------------------------------|
G-|---------------------------------------------------------|
D-|-4-4-4-4-4-2-5-4-4-4-4-4-2-5-4-4-4-4-4-2-5-4-4-4-4-4-2-5-|
A-|-2-2-2-2-2-0-3-2-2-2-2-2-0-3-2-2-2-2-2-0-3-2-2-2-2-2-0-3-|
E-|---------------------------------------------------------|

e-|---------------------------------------------------------|
H-|---------------------------------------------------------|
G-|---------------------------------------------------------|
D-|-7-7-7-7-7-4-8-7-7-7-7-7-4-8-7-7-7-7-7-4-8-7-7-7-7-7-4-8-|
A-|-5-5-5-5-5-2-6-5-5-5-5-5-2-6-5-5-5-5-5-2-6-5-5-5-5-5-2-6-|
E-|---------------------------------------------------------|

e-|---------------------------------------------------------|
H-|---------------------------------------------------------|
G-|---------------------------------------------------------|
D-|-4-4-4-4-4-2-5-4-4-4-4-4-2-5-4-4-4-4-4-2-5-4-4-4-4-4-2-5-|
A-|-2-2-2-2-2-0-3-2-2-2-2-2-0-3-2-2-2-2-2-0-3-2-2-2-2-2-0-3-|
E-|---------------------------------------------------------|

e-|-------------------------------------------|-------------------|
H-|-------------------------------------------|-5-----------------|
G-|-------------------------------------------|---5-4-----------4-|
D-|-7-7-7-7-7-4-8-7-7-7-7-7-4-8-7-7-7-7-7-4-8-|-------5-4---3-4---|
A-|-5-5-5-5-5-2-6-5-5-5-5-5-2-6-5-5-5-5-5-2-6-|-----------5-------|
E-|-------------------------------------------|-------------------|
                                                (toisesta kitarasta en saa
selvää)

2. säkeistö:

e-|---------------------------------------------------------|
H-|---3---3---3-----3---3---3-----3---3---3-----5---5---5---| x2
G-|-4---4---4---4-4---4---4---4-4---4---4---4-4---4---4---4-|
D-|---------------------------------------------------------|
A-|---------------------------------------------------------|
E-|---------------------------------------------------------|
(ensimmäisen kerran jälkeen lähtee 1. säkeistön kitarakuvio hieman
erilaisena)

e-|-------------------------------------|
H-|---3---3---3---3---3---3---3-5---5---| x3
G-|-4---4---4---4---4---4---4-----------|
D-|-------------------------------------|
A-|-------------------------------------|
E-|-------------------------------------|

e-|-----------------------------------------------------------------|
H-|---3---3---3---3---3---3---3---3---5---5---5---5---5---5---5---5-|
G-|-4---4---4---4---4---4---4---4---4---4---4---4---4---4---4---4---|
D-|-----------------------------------------------------------------|
A-|-----------------------------------------------------------------|
E-|-----------------------------------------------------------------|


MTV3 Stagella Halmkrona soitti kutakuinkin näin:

1. säkeistö:

    H5          D5               E5           G5
e-|---------------------------------------------------------|
H-|-----5-7-5-------5-7-5-----------5-8-5-------5-8-5-------|
G-|-4-7-------7-4-7-------7-4-7-4-7-------7-4-7-------7-4-7-| x2
D-|---------------------------------------------------------|
A-|---------------------------------------------------------|
E-|---------------------------------------------------------|
    E5*
e-|-------------------------------|
H-|-----5-8-5-----------5-8-5-----|
G-|-4-7-------7-4---4-7-------7-4-|
D-|-------------------------------|
A-|-------------------------------|
E-|-------------------------------|

 H5:  D5:  E5:  G5:  E5*:
|---||---||---||---||---|
|---||---||---||---||---|
|-4-||-7-||---||---||-9-|
|-4-||-7-||-2-||-5-||-9-|
|-2-||-5-||-2-||-5-||-7-|
|---||---||-0-||-3-||---|
(Rasio soitti power chordit)

2. säkeistö:

e-|---------------------------------------------------------|
H-|---3---3---3-----3---3---3-----3---3---3---5---5---5---5-| x2
G-|-4---4---4---4-2---2---2---2-4---4---4---4---4---4---4---|
D-|---------------------------------------------------------|
A-|---------------------------------------------------------|
E-|---------------------------------------------------------|

e-|-------------------------------------|
H-|-----5-7-5------------5-8-5------5-8-|
G-|-4-7-------7-4-7-4-7-------7-4-7-----| x3
D-|-------------------------------------|
A-|-------------------------------------|
E-|-------------------------------------|

e-|-----------------------------------------------------------------|
H-|-----5-7-5------------5-8-5------------5-8-5-----------5-8-5-----|
G-|-4-7-------7-4-7-4-7-------7-4-7---4-7-------7-4---4-7-------7-4-|
D-|-----------------------------------------------------------------|
A-|-----------------------------------------------------------------|
E-|-----------------------------------------------------------------|

Kertsit taidettiin vetää ihan vaan power chordeina eli Halmkronalla  H5,
G5 ja E5. 
Rasion osuus kertsissä on ylempänä hyvin, tosin tarvinneeko tuota
D-kieltä jättää vapaaksi.

Lopussa Halmkrona junttas E5 ja Rasio E5*. Muuhun ei muuteltavaa.
 - T
---------------------------------------------------------------------------------------------

Kirjoitin soituja auki laiskureita (kuten itseäni) varten. Ei
välttämättä ihan oikein, mutta 
kuulostaa ihan uskottavalta...

Hm               D           Em
Kummaan paikkaan itsesi karkotit 
                  G
Syyttä syyllisten seuduille 
Hm         D
Raskaisiin taloihin pesit 
Em              G
Kirkuviin huoneisiin 

Hm              G
Mitä ne sinulle tekevät siellä 
Em               G
Kuka on raapinut nimesi pois 
Hm           D
Nimesi, kasvosi, mielesi oivat 
Em          G
Palvelemaan konetta 

Hm               D
Kauan sitten kun lakosi kevät 
Em          G
Huomaamatta tuhlattu 
Hm             D
Elämän syvä ja vehreä lehto 
     Em         G
Niin houkutteli sua... 


Hm                   G         Em
Pyörre on hirmuinen, vahva sen voima on 
Hm                  G       Em
Kurimus, kauhuinen, voittamaton 

Hm                      G        Em
Kylmää, niin kylmää, on aavoilla kylmää 
   Hm                 G       Em
Ja kylmää on tarjolla koteihinkin 
Hm                      G       Em
Jäässä, niin jäässä, on sydämet jäässä 
   Hm                  G        Em
Ja jäärailon päässä on jäärailo uus 

    Hm                D
Jos muistelet mitä se olisi: kauneus 
Em                   G
Kauneus tai sopu tai rehellisyys 
Hm                  D
Kukaan ei kuuntele, kukaan ei kuule 
Em                  G
Kirouksen portit on edessäpäin 

Hm                G
Halpojen hoitojen maailma uljas 
Em              G
Haluaa taistosi latistaa 
Hm           G
Mielesi lipeävedellä valkaistuun 
Em                G      
Ruotuunsa joka on hautausmaa

Hm                   G         Em
Pyörre on hirmuinen, vahva sen voima on 
Hm                  G       Em
Kurimus, kauhuinen, voittamaton 

Hm                      G        Em
Kylmää, niin kylmää, on aavoilla kylmää 
   Hm                 G       Em
Ja kylmää on tarjolla koteihinkin 
Hm                      G       Em
Jäässä, niin jäässä, on sydämet jäässä 
   Hm                  G        Em
Ja jäärailon päässä on jäärailo uus
Hm                      G       Em
Jäässä, niin jäässä, on sydämet jäässä 
   Hm                  G        Em
Ja jäärailon päässä on jäärailo uus




(Päivitetty 03.05.2004)


Muokkaa tabulatuuria »