CMX : Tabulatuurit : Tuulilukko

E|-------------0---|
B|-------6-------6-|
G|-----0---0-------|
D|---7-------7-----|
A|-5---------------|
E|-----------------|



Kappaleen miksauksesta johtuen on vaikea sanoa kumpi kitara soittaa
mitkäkin nuotit,
joten seuraavassa riffissä nuotit on niin kuin parhaaksi näin.
E|-------------5---|
B|-------5-8---5---| 
G|-----5-----5---5-| 
D|---5-------------|
A|-----------------|
E|-5---------------|
 |                 |
E|-------------5---|
B|-------5-------5-|
G|-----5-5-5-------|
D|---5-------5-----|
A|-----------------|
E|-5---------------|


laulun aikana
E|-------------5---|
B|-------5-------5-|
G|-----5---5-------|
D|---5-------5-----|
A|-----------------|
E|-5---------------|


           hp				     hp		
E|-------1-010-------------------0---------1-010-------------------0---|
B|-----3---------3---------3-------3-----3---------3---------1-------1-|
G|---2-------------2-----0---0---------2-------------2-----2---2-------|
D|-0-------------------2-------2-----0-------------------2-------2-----|
A|-------------------0---------------------------------0---------------|
E|---------------------------------------------------------------------|
           hp                 
E|-------1-010-----------------------------------3----------------0---------------0---|
B|-----3---------3-------------3-----------3-------3--------2-------2-------2-------2-|
G|---2-------------2-----3-------3-------0---0------------2---2-----------2---2-------|
D|-0-------------------3---3-------3---0-------0--------2-------2-------2-------2-----|
A|-------------------1-------1------------------------0---------------0---------------|
E|-----------------------------------3------------------------------------------------|





E|-1--0----0--0----|
B|-1--1----0--0----|
G|-2--2----2--0----|
D|-2--2----2--2----|
A|-0--0----0--0----|
E|-----------------|

Kertsin jälkeinen pianokuvio kitaralla menis vissiin näin.
e|-------------------------------|
H|-------------------------------|
G|-------------------------------|
D|-19-17---19-15---19-14---19-12-|
A|-------------------------------|
E|-------------------------------|

Ja basso ehkäpä näin:
G|--------------------------|
D|-0---7---12--12/14-12---7-|
A|--------------------------|
E|--------------------------|


Lead-kitara tulee myöhemmin, kunhan jaksan. 
Tietenkin muutkin saavat sen tähän lisätä.
Liidikitara:
Säkeissä jotain tällaista:
e|--------------------------|
H|--------------------------|
G|--------------------------|
D|-10b12--------14/19-------|
A|--------------------------|
E|--------------------------|

Kertsiin voi soittaa vaikka...:
e|---------------------------------------------
H|---------------------------------------------
G|---------------------------------------------
D|-10b12---7---10b12---7---10b12---8---5---7---
A|---------------------------------------------
E|---------------------------------------------

Edit: En lisää muuta kuin korjausyrityksen kertosäkeistön melodian
merkintään, nuotinnoksen kokonaisuudessaan tehnyt Tuomas
(tuomas.ronkko@pp.nic.fi) T. Ilari

Lisäsin pianon, basson ja lead-kitaran. -HM

(Päivitetty 12.01.2004)


Muokkaa tabulatuuria »