CMX : Tabulatuurit : Pirunnyrkki

Rihvi 1a 2x:
E-------------------------------------------
H-------------------------------------------
G-------------------------------------------
D-------------------------------------------
A-------------------------------------------
E-03-03-034--03-03-034--03-03-03-03-03-034--

Rihvi 1b 1x:
E-------------------------------------------
H-------------------------------------------
G-------------------------------------------
D---------1----------1----------1----------3
A-03-03-03---03-03-03---03-03-03---03-03-03-
E-------------------------------------------

 Rihvi 1a 1x:

H5        D5          H5           D5
Ei aukene ei ja tiukempaan se puristuu... 

Trumpettisoolossa jamma-jammaa E:stä ja H:sta.


 Sitten se varsinainen jännä, huikea "bassofilli" tähän malliin:
-0---2---7-6-1---5---1--0-------3-2---
---------------------------4--2-------
--------------------------------------
--------------------------------------

 Loppuhuipentuma nousua Em-asteikolta, vissiin.

 >Pari säveltä oli jäänyt mielestäni pois. Lisäsin ne, mutta en
tehnyt muita muutoksia tai kommentteja.<

(Päivitetty 07.12.2003)


Muokkaa tabulatuuria »