CMX : Tabulatuurit : Ruisperkele

CMX: Ruisperkele
Singlelt: Lepattajat (2003)
Selvitteli Sami

Intro/Kertsi
|---------------------------------------|
|---------------------------------------|
|---------------------------------------|
|-9-9-9-12-12-12-9-9-9-12-12-12-7-7-9-9-|
|-7-7-7-10-10-10-7-7-7-10-10-10-5-5-7-7-|
|-----------------------------------0-0-|

Skeist
F#m C#m Em Bm (toisessa skeistss vitossointua, siis F#5 C#5 E#5 B5)

Bridge/Soolo
E5 E5 (tauko) B5 B5

Soolo perustuu tysin pentatoniseen Em-skaalaan elikk (eli siis nihin
sveliin):

|-------------------------------12-15-|
|-------------------------12-15-------|
|-------------------12-14-------------|
|-------------12-14-------------------|
|-------12-14-------------------------|
|-12-15-------------------------------|
  E  G  A  B  D  E  G  A  B  D  E  G 

Noilla soittelet sitten sit sooloa. Lhtee tuosta D-kielen 14-vlist,
elikk E:st.
Tuo skaala oli hieman teoriaa niille jotka eivt tied nit skaaloja :)
Tuo Em/E5 soitetaan sitten seiskanauhalta A-kielelt alkaen.

(Päivitetty 23/06/2003)


Muokkaa tabulatuuria »