CMX : Tabulatuurit : Ruisperkele (basso)

Intro:

G------------------------------------
D------------------------------------
A--7-7-7-10-10-7-7-10-10-5-5-7-7-7-7-
E------------------------------------

Säe:

G---------------------------------
D---------------------------------
A-9-9-9-7-9-9-9-7-----------------
E-----------------9-9-9-7-9-9-9-7-

G---------------------------------
D---------------------------------
A-7-7-7-5-7-7-7-5-----------------
E-----------------7-7-7-5-7-7-7-5-

Kerto:

Sama ku intro...

Soolo:

G------------------
D------------------
A-7-7--------------
E-------------7-7--

Ja niin ees päin... Kiitos

(Päivitetty 10.06.2003)


Muokkaa tabulatuuria »