CMX : Tabulatuurit : Silmien Takana

SILMIEN TAKANA



b=venytys
br=venytys ja palautus
p=pull-off
h=hammer-on

Intro: F#m/D/A/G

E|-19br21-------19br21-------19br21--------------------|
B|--------17-----------17------------------------------|
G|----------------------------------18----18br19-16----|
D|-----------------------------------------------------|
A|-----------------------------------------------------|
E|-----------------------------------------------------|

E|-----------------|
B|-----------------|
G|-18--18b19-18-16-|
D|-----------------|
A|-----------------|
E|-----------------|

Säkeistö: A/E/F#m/D 


E|-------2---0---|
B|-----3---------|
G|---2-----------| toinen kitara siirtyessä kertosäkeeseen
D|-0-------------|
A|---------------|
E|---------------|


Kerto:
F#m     D         A            G  
silmien takana on kaukana kuin kaukaisin satama
silmien takana on kaukana kuin pilvien takana x2
                  G#           C#
silmien takana on kaukana kuin kuu

E|-----------------------------------------------------------------------------------|
B|-----------------------------------------------------------------------------------|
G|--------11b13r11b13-11----------------------------11/13---13br14---11---9\7----6---|
D|-7/9-11------------------11br12---(12)\----7/9-11----------------------------------|
A|-----------------------------------------------------------------------------------|
E|-----------------------------------------------------------------------------------|


E|----------------------------------------------------------------------|
B|----------------------------------------------------------------------|
G|-----------------------------6h9-11p9-------9h11-9--7h9p7-6-----------|
D|-9br11-9\7/9---(9)\------7-9----------------------------------7/9-7---|
A|----------------------------------------------------------------------|
E|----------------------------------------------------------------------|


E|----------------------------------------------------------|
B|---x--------------x---------x-----------------------------|
G|--x--13-11--------x---------x-----------------------------|
D|-x---------11-----x-12-11---x-9-7---11-9---7---9br11-11---|
A|----------------------------------------------------------|
E|----------------------------------------------------------|

Lyhyestä virsi kaunis. -Taukki

Lisäsin lead-kitaran alkuperäiseen nuottikaavaan jota muuten en ole
muuttanut. -Tuomas






(Päivitetty 09.02.2003)


Muokkaa tabulatuuria »