CMX : Tabulatuurit : Helevetinkone

  CMX - Helevetinkone

Pudotetaan E D:hen.

Priffi

D5, F5

  "Valuu mustaa metallia seinkkss huoneessa,
   joka on laulun vankila ja kirjoitusten kehto

   sekaisin meno on herrasmieslaji naurettavuuksiin asti
   ja silti se on totta niin kuin lapsen luottamus

   meidn leikkimme ovat niin vakavat, niin vakavat ja kovat
   meidn leikkimme ovat niin vakavat, niin vakavat ja kovat

   jokainen on kynyt siell miss p ja sein kohtaa
   jokaista on nyryytetty nerokkailla tavoilla
  
   ei tstkn synny laulua jota voisi hyrill
   kun ajaa hymy naamalla jyrknteelt pimen"
   G5                          D#5                            D5
  "Asiain tila ollessa tm on syyt knt kylke ja luopua toivosta"

  "meidn leikkimme ovat niin vakavat, niin vakavat ja kovat
   meidn leikkimme ovat niin vakavat, niin vakavat ja kovat
   meidn leikkimme ovat niin vakavat, niin vakavat ja kovat
   meidn leikkimme ovat niin vakavat, niin vakavat ja kovat"
 
Soolo

 
|-------------------------------------13p10--------13p10----13p10----13p10-------
 
|--/10-10-13p10----10--10/13-13-10-13-------13-10--------10-------10-------13p10-
 
|---------------12---------------------------------------------------------------
 
|--------------------------------------------------------------------------------
 
|--------------------------------------------------------------------------------
 
|--------------------------------------------------------------------------------

 
|-------10----10------------------------------------10----------------------------------
 
|-10/13----13----13----10-----------10-12-------10--10-------10-12b13b12-10-12p10----10-
 
|-------------------12----12--10h12-------10h12--------10h12----------------------12----
 
|---------------------------------------------------------------------------------------
 
|---------------------------------------------------------------------------------------
 
|---------------------------------------------------------------------------------------

  |--/10-10--/13-13--/15-15--10---
  |-------------------------------
  |-------------------------------
  |-------------------------------
  |-------------------------------
  |-------------------------------

Jotakuinkin noin.

Lopun hooseeptk menee nill A#5, G#5, H5  ja loppupuolelle tulee F#5

  

(Päivitetty 10/02/2003)


Muokkaa tabulatuuria »