CMX : Tabulatuurit : Post Mortem

Post Mortem (hevisoinnuilla)
[korjasin pari pikku juttua,
introssa ei todellakaan ole kuin nuo nelj sointua, 
2.ktr kikkailee jotakin, selvittkt sen ken voi.)

Intro: H5 E5  G5 Bb5     x5
Se:   G5 Bb5 H5 E5      x2


Vli: E:--------------------------
      H:--------------------------
      G:--------------------------
      D:--------------------------
      A:--------------------------
      E:333222333555666555333222--

Sitte tulee tuo intro 2 kertaa ja sitte:

Kerto: G5 D5 D#5 Bb5 G#5  x4


Toinen vli: E:--------------------I-----
             H:--------------------I-----
             G:--------------------I-----
             D:--------------------I-----
             A:-----53--65---------I-----
             E:-323---5---66/8-56--I-352-  

Viimesell kerralla tuo 352...

Sitte alkaaki taas skeest... Kuuntele levylt miten nuo ajotukset
menee...

2. kitara, 2. se:

E:-------10---------10---11-------------7----
H:----12---------11---------12--------9------
G:-12---------10---------------14---9--------
D:-------------------------------------------
A:-------------------------------------------
E:-------------------------------------------

E:-------10---------10---11---------------12-
H:----12---------11---------12---------12----
G:-12---------10---------------14---13-------
D:-------------------------------------------
A:-------------------------------------------
E:-------------------------------------------

Viel yx vli (se lasku siin ennen kertoa)ja se menee nin (A-kielen 10.
nauha): G5 F5 C5 D5 C5 Bb5 A5

(Päivitetty 25/08/2005)


Muokkaa tabulatuuria »