CMX : Tabulatuurit : Ehdota jotain parempaa

intro:
------

4x

e|-----------------
B|---1---0---1-----
G|-----------------
D|-----------------
A|-0---0---0---0-0-
E|-----------------


riffi1:
-------

e|--------------------------------------------------
B|---1---0---1--------------------------------------
G|-----------------2---0---2------------------------
D|-------------------------------2---0---2----------
A|-0---0---0---0-0---0---0---0-0---0---0---0-3-3-0--
E|--------------------------------------------------


riffi2:
-------

e|----17----15-------------15---17----------
B|-17----17----17-15-17--17--17----17-15-17-
G|------------------------------------------
D|------------------------------------------
A|------------------------------------------
E|------------------------------------------

e|----17----15------------------------------
B|-17----17----17-15-17-----17----17----17--
G|-----------------------17----17----15-----
D|------------------------------------------
A|------------------------------------------
E|------------------------------------------

Noista korkeista äänistä en mene takuuseen, kun kaikki 14. nauhan
jälkeiset osat ovat normaalilla akustisella hieman hankalia soittaa.

Mutta noin se periaatteessa menee. Eli riffi1 soi taustalla koko
ajan, riffi2:n tullessa mukaan jossain välissä. 

Kolmas akustinen kuiskausten jälkeen: Am C

Neljäs kitara soittaa ensimmäistä riffiä ilman bassosäveliä.

Hevisäröllä varustetta sähkis loppupuolella: A5 C5

(Päivitetty 12.11.2002)


Muokkaa tabulatuuria »