CMX : Tabulatuurit : Päänsärkijä

Intro:
E|-5----5--5--5--5--5--5--5--5--5--5--5--5--5--5--5-----
H|-8b10-10-10-10-10-10-10-10-10-9--9--9--9--9--9--9-----
G|------------------------------------------------------
D|------------------------------------------------------
A|------------------------------------------------------
E|------------------------------------------------------

heviriffi1:
||: F5 | C#5 | A5 | F#5 | F5 | C#5 | F#5 | E5 :||


heviriffi2:
E|------------------------------------------------------
H|------------------------------------------------------
G|------------------------------------------------------
D|------------------------------------------------------
A|---3--3--3--5--3--6--5----2--2--2--7--2--5--4---------
E|---1--1--1--3--1--4--3----0--0--0--5--0--3--2---------


tahdon elää tahdon kuolla...
||: Gm | D# | Am | Bb :|| 4x


minä tulen hulluksi...
||: D | A | H | E :|| (1. kierto)

minä tulen hulluksi...
||: D | Am | Hm | E :||

E|------------------------------------------------------
H|------13---15---17------------------------------------
G|-14---------------------------------------------------
D|------10---12---14------------------------------------
A|-12---------------------------------------------------
E|------------------------------------------------------

(Päivitetty 03.10.2002)


Muokkaa tabulatuuria »