CMX : Tabulatuurit : Pirunmaitoa

Intro:
E----------------------------------------------------------------||--
H----------------------------------------------------------------||--
G---------------------------------------------------------------.||--
D--4-4-2-4-4-2-4-2--4-4-2-4-4-2-4-2-----------------------------.||--
A--2-2-0-2-2-0-2-0--2-2-0-2-2-0-2-0-------2----------------2-----||--
E-------------------------------------3-5----0--0--3-5---0---0---||--
alkuriffi:                                                              X4
E-----------------------------------|
H-----------------------------------|
G-----------------------------------|
D-----------------------------------|
A-7--5----5-5-------------2---2-2-5-|
E------7-------7--5--3-5------0-0-3 |
                                           X8    
jossakin vaiheessa "wah-wah-kitara" soittaa oktaavia ylempää!
09
                                 09
Bassoriffi:
G------------------------------------------------------------------------ 
----
D--2-0---0-0------------------------------------------------------------- 
----
A------2-----2-0---0-2--------------------------------------------------- 
----
E----------------3-----0-0-3--------------------------------------------- 
----

tuo kuppi pirunmaitoa ja yöllä piikkivuoteella
ei meillä ole ihoa ei lihaa, verisuonia
(alkuriffi) x4
aurinko nousee aina sieltä minne käännän kasvoni
ja vahvoin käsin uupunein ojennan henkeni
pirunmaitoa
(alkuriffi) alkuriffin loppuosa! (no kuuntele perkele levyltä)

näppäily 

Hm      A             G            Em     F#m         x3
sinulle jota en vielä tunne koetan laulun kirjoittaa
Hm       A        G       Em   F#m
sinulle, sinulle, sinulle

A---4--------4--4-------|-7--7--6----
E------4--5-------4--5--|----------7- x4 ja riffi suoraan

                                x3                                        
x4
ja jossain risteyksessä
selällään maan tomussa
kasvot katsoo taivasta
kun sataa maitoa
(alkuriffi)
pirunmaitoa

      Hm     A       G      Em  F#m
E-2-||------------------------------||---
H---||-3---2h0----------3---2h0-----||---
G---||.--------2----------------2--.||---
D---||.-----------4---------------4.||---
A---||------------------------------||---
E---||------------------------------||--- x10
hapanta ja paksua maan ja lannan tuoksua
tummaa, verenlämpöistä kasvojen mittaiseen
huutoon

sinulle jota en vielä tunne koetan laulun kirjoittaa (alkaa tilulilu
züdeemi)

|-------------------------------------------------12h14p12-|
|14--12-------------/15--14--12-------12-----12-
|-------14--12--11----------------14----14------
|-----------------------------------------------
|-----------------------------------------------
|-----------------------------------------------


sooloo en viittinyt edes alkaa koittaa!!!

(Päivitetty 15.08.1999)


Muokkaa tabulatuuria »