CMX : Tabulatuurit : Isohaara

Riffi:
E|----------------------------------------------------------
H|----------------------------------------------------------
G|----------------------------------------------------------
D|-------6-----7-----6------------6-----5-----6-------------
A|---7-----7-----7-----7------6-----6-----6-----6-----------
E|-0---0-----0-----0-----0--4---4-----4-----4-----4---------


E|----------------------------------------------------------
H|----------------------------------------------------------
G|---------------------------------------------------------- x2
D|-2---9-8-6---4-3-2---9-8-6---4-3--------------------------
A|-2---9-8-6---4-3-2---9-8-6---4-3--------------------------
E|-0---7-6-4---2-1-0---7-6-4---2-1--------------------------

Dempaten:
E|----------------------------------------------------------
H|----------------------------------------------------------
G|---------------------------------------------------------- x4
D|-2-2-2-2-2-2-2-2-2-2-9-8-6-6-6-6-6-6-6-6-6-6-4-3----------
A|-2-2-2-2-2-2-2-2-2-2-9-8-6-6-6-6-6-6-6-6-6-6-4-3----------
E|-0-0-0-0-0-0-0-0-0-0-7-6-4-4-4-4-4-4-4-4-4-4-2-1----------

Kerto:
(taustalla jotain näppäilyä)
||: Am | E G#m | Am | E G#m :|| x2
  | F# | F#|

E|----------------------------------------------------------
H|----------------------------------------------------------
G|----------------------------------------------------------
D|-------6-----7-----6------------6-----5-----6-------------
A|---7-----7-----7-----7------6-----6-----6-----6-----------
E|-0---0-----0-----0-----0--4---4-----4-----4-----4---------


E|-----------------------------------------------------------
H|-----------------------------------------------------------
G|-----------------------------------------------------------  x3
D|-------6-----7-----6---------7----9-----10-----6-----7---9-
A|---7-----7-----7-----7----0----0-----0------0-----0----0---
E|-0---0-----0-----0-----0-----------------------------------

E|-----------------------------------------------------------
H|-----------------------------------------------------------
G|-----------------------------------------------------------
D|-------6-----7-----6---------7----9-----10----12----10---9-
A|---7-----7-----7-----7----0----0-----0------0-----0----0---
E|-0---0-----0-----0-----0-----------------------------------

Soolo:

E|-----------------------------------------------------------
H|-----------------------------------------------------------
G|-----------------------------------------------------------
D|-9-9pm-9pm-9-9pm-9pm-10-9-7--------------------------------
A|-7-7pm-7pm-7-7pm-7pm-7--7-7--------------------------------
E|-----------------------------------------------------------

E|-15-------14--15--15-------14--15-------14-14-12----12-----
H|----15-13------------15-13--------15-13----------15--------
G|-----------------------------------------------------------
D|-----------------------------------------------------------
A|-----------------------------------------------------------
E|-----------------------------------------------------------

E|-14-12----12-12-12-----------------------------------------
H|-------15----------15-14-15-15-15-13-12-13-13--------------
G|-----------------------------------------------------------
D|-----------------------------------------------------------
A|-----------------------------------------------------------
E|-----------------------------------------------------------

E|-----------------------------------------------------------
H|-10-12-0-10-13-0-15-0-10-0-12-10-0-13-15-0-10-0-12-0-10----
G|-----------------------------------------------------------
D|-----------------------------------------------------------
A|-----------------------------------------------------------
E|-----------------------------------------------------------

Kerto...

Outro:

||: G#m E | Am F :||


(Päivitetty 19.08.2002)


Muokkaa tabulatuuria »