CMX : Tabulatuurit : Minne paha haudattiin

(Edit: Mykkänen

Introriffi (X2):

e|----------------------------------------------|
H|----------------------------------------------|
G|----------------------------------------------|
D|-7--9--9--7--9--9--7--9--10--7--9--7--7--9--9-|
A|-7--9--9--7--9--9--7--9--10--7--9--7--7--9--9-|
E|-5--7--7--5--7--7--5--7--8---5--7--5--5--7--7-|


Riffi 2:

H|------------------------------|
G|------------------------------|
D|--2---5---7--8-7-8-10-8-7-5---|
A|--2---5---7--8-7-8-10-8-7-5---|
E|--0---3---5--6-5-6-8--6-5-3---|)


Säkeistöä en jaksanut selvittää kun en heti keksinyt. 
Enkä kertosäettäkään, se taitaa alkaa D5:lla, eli 2 tai 3 paksuinta
kieltä vapaana soitettuna.

Luulen että säkeistä menis näin:

d|---------------------------77677676-
a|-99799797997997979979979755455454-
d|-997997979979979799799797----------

Vai meniskö se suunnilleen näin -Tuomas
E|-----------------------------------------------------------------|
B|-----------------------------------------------------------------|
G|-----------------------------------------------------------------|
D|-4-4-4-4-4-4-4-4-4-4-4-4-4-4-4-4-----------------7-7-7-7-7-7-7-7-|
A|-2-2-0-2-2-0-2-0-2-2-0-2-2-0-2-0-2-2-2-2-2-2-2-2-5-5-4-5-5-4-5-4-|
E|---------------------------------3-3-0-3-3-0-3-0-----------------|
 | 
E|-----------------------------------------------------------------|
B|-----------------------------------------------------------------|
G|-----------------------------------------------------------------|
D|-4-4-------------------------4---------------------7-7-----7-7-7-|
A|-2-2-------------------------2---2-2---------------5-4-----4-5-4-|
E|---------------------------------3-3-----------------------------|
Kertsi taitais olla näin 
|  Dm  |  Bb  |  F  |  Am  | 

d|-0----8----3----7---  (rytmihän löytyy laulusta)
a|-0----8----3----7---     
d|-0----8----3----7---





Korjatkaa jos on virheitä. - Rämpyttelijä -
3.
g|--------------------------------------
d|--------------------------------------
a|-7-9-9-7-9-9-7-10-10-7-9-7-7-9-9-(8)-
d|-7-9-9-7-9-9-7-10-10-7-9-7-7-9-9-(8)-
tuo suluissa oleva soitetaan vain kerran koko kappaleen aikana, kuuntele
itse.

Joku kiva setä voisi selvittää loput kappaleesta.


Kertsin soinnut mun mielestä | D5 | Bb5 | F5 | A5 |
Ja säkeistö vois olla | H5     | G5  D5  |
Säkeistön lopun bridge taas lienee | G5 | F#5 | A5 | G5 |

Niin ja eikös tuo suluissa oleva sointu olekin Bb5?

Soolotus (4:32), en käyttänyt turhaa D-virettä.
Korjatkaa, ihmeessä, sillä ensimmäisessä tekemässäni tabulatuurissa
on varmasti virheitä
e|----------------------------------------------
H|----------------------------------------------
G|-10b12-7---7----7-10b12-12-7---7----7-10b12(x5)
D|-------------10------------------10-----------
A|----------------------------------------------
E|----------------------------------------------
                  -> matalista en ole ihan varma  
e|----------------------------------------------
H|----------------------------------------------
G|-10-10-10-7-----------------------------------
D|------------10-7------------------------------
A|-----------------10b12h13-10-8----8---8-10b12-
E|-------------------------------10-------------

e|----------------------------------------------
H|----------------------------------------------
G|----------------------------------------------
D|---------------------------------15-17-18b19--
A|-10-10-10-8-------------------18--------------
E|------------10-8-3/5/8/10/15/-----------------

e|----------------------------------------------
H|----------------------------15~-15h17h18r17r15
G|----------------17-15-17-18-------------------
D|-18r17r15-------------------------------------
A|----------18----------------------------------
E|----------------------------------------------

e|-------------------------------------15~------
H|-15-17-18-15\--15-17-18-17-15-17-18-----18-17-
G|----------------------------------------------
D|----------------------------------------------
A|----------------------------------------------
E|----------------------------------------------

e|-------------------------20b22-20b22-20-------
H|-15-17----15/17/18/20-20----------------20----
G|-------17-------------------------------------
D|----------------------------------------------
A|----------------------------------------------
E|----------------------------------------------
   __Monta kertaa, pidä bendattuna
e|-22------20p17--20-20p17--20-20p17--20-20p17--
H|------20------17--------17--------17--------17
G|----------------------------------------------
D|----------------------------------------------
A|----------------------------------------------
E|----------------------------------------------

e|-18p15--18-18p15--18-18p15--18-18p15----------
H|------15--------15--------15--------15--------
G|----------------------------------------------
D|----------------------------------------------
A|----------------------------------------------
E|----------------------------------------------

e|-17p13---17p13---17p13---17p13----------------
H|------13------13------13------13-18-17-15-----
G|------------------------------------------17--
D|----------------------------------------------
A|----------------------------------------------
E|----------------------------------------------

e|----------------------------------------------
H|-15b17r15-------------------------------------
G|----------17----10b11-10-7-9-10~--10-7-9-10b11
D|----------------------------------------------
A|----------------------------------------------
E|----------------------------------------------

e|----------------------------------------------
H|----------------10b11r10-------10-------------
G|-10-10-7-9b10r9----------9b10~----9-10-7~-----
D|----------------------------------------------
A|----------------------------------------------
E|----------------------------------------------

(Päivitetty 06.08.2002)


Muokkaa tabulatuuria »