CMX : Tabulatuurit : Epäluoma

  CMX - Epäluoma

  Ekat 5sec.

 E|-0--3-6-5-- 2x

  |--------------------------------
  |--------------------------------
  |--------------------------------
  |--2-2-2-2-2-2--2-2-2-2-2-2-2-2--  3x
  |--0-0-0-0-0-0--0-0-0-0-0-0-0-0--
  |-------------------------------0 (väännä viritystapista ja 
pudotaD:hen ja takas E:hen) 


  |--------------------------------
  |--------------------------------
  |--------------------------------
  |--2-2-2-2-2-2--2-2-2-5-5-5-6----  
  |--0-0-0-0-0-0--0-0-0-3-3-3-4----
  |--------------------------------

  |--------------------
  |--------------------
  |--------------------  Tätä riffiä paljon
  |--2-2-2-2--2-2-2----
  |--0-0-0-0--0-0-0----
  |--------------------

Sanoituksista ei ole mitään hajua.

n. 01:00 kohdalla
 
 E|-0- ja viritystapista taas pudotetaan D:hen ja takas E:hen

Kertsi. Vaihdetaan tahtilaji 5/4

|----------------------------------------------
|----------------------------------------------
|----------------------------------------------
|------------5--4-------------------5--4------- 2x
|-----1--5-4---------3-------1--5-4------------
|--3---------------4------3---------------4----

  "Musiikki on niin tukalaa, että silmät pullistuu" ?

Back to 4/4

Säkkäririffi. Sanoista ei mitään tietoa taaskaan.

n. 01:40 kohdalla
 
 E|-0- ja viritystapista taas pudotetaan D:hen ja takas E:hen


Kertsiriffi 4x

n. 02:11

Basso :

Bassolla näyttäs menevän tässä 5/4 ja skepal 4/4

 G|----------------     --------------
 D|---------------- 5x  --------------
 A|-----5----0--2--     -----5--------
 D|-0--------------     --0----0-1-2?-

Kitara:

Säkkäririffiä 8 kertaa ja sen jälkeen viritystappikohta.

n. 02:24

G5, A#5, D5, C#5 4x

n. 02:36 vaikkapa

  |----------
  |----------
  |--5-\-4---
  |----------
  |--5-------
  |--3-------

 "Musiikki on tukalaa, niin että silmät pullistuu"

n. 02:58 Väännetään E vielä D:hen mutta ei palauteta.


(Päivitetty 14.07.2002)


Muokkaa tabulatuuria »