CMX : Tabulatuurit : Päämäärä

Pmr

Introssa on jotain omituista mrin (jota
kaiketi musiikiksi kutsutaan) mutta luulisin
ett pohjalla liikkuu jotain tllaista:

e-------------------------------------
h-------------------------------------
g-------------------------------------
d---------------3-33------3---------
a-7-77-77-7-7--7-1-11-3-33-1-3-
e-5-50-00-5-5*-0------1-11---1--
* saattaapi olla, ett viitonen ja
  nolla ovat pinvastaisilla paikoilla

Versest ei taasen pirukaan saa selvksi muutakuin sen,
ett siin ristn jotain, ja ett siin on seuraavankaltainen
filli jossain vliss:

e--------------------------------------
h--------------------------------------
g--------------------------------------
d--------------------------------------
a-2-2-2-2-2-2-2-2-2-2-2-2-2-2-2-2
e-3-0-0-3-0-0-3-0-0-3-0-0-3-0-3-0

Ja kertose poppisoinnuilla 
(huomaa ett "Siell"-sana lauletaan versen puolella fillin plle)

       Am       Em         C          G 
Siell pmr lie, miss hiljaisuus soi
      Am      Em         C         G
sinne lauluni vie, miss laulaa ei voi

Ja tss kohdin soinnutus todennkisesti kusee
aika ikvsti, eli mik tahansa sointu voi olla 
mik tahansa muu sointu, mene ja tied...
Soinnusta toiseen kannattaa siirty liuulla ja muista dempata.
(Ja tss tuo "Siis" lauletaan varsinaisen kertsin puolella)	

     A5		  F5
Siis siunaa meit katseellasi, 
G5           F#5	
aurinkoinen, kuutamoinen
A5           F5
siunaa meit valollasi, 
G5          F#5
tiedollasi, pelollasi
H5    A5     G5     F5
nyt meille oikeat askeleet

Eip siit sitten muuta. Ajoitukset on ihan pin perhereik,
ja soinnutkin jossain mrin. Mutta jotain tllst kuitenki.
En kiell viisaampia korjailemasta, enk pidt kaikkia oikeuksia
itsellni. Eik tll ole mitn tekemist Teoston, Esekin tahi Lusesin
kanssa (Haahhahahahahaa...)		

Mies ARSIKSEN takana. 


 On niin pahasti pin peraukkoa, ett pakko puuttua peliin. 
Alku on suunnilleen oikein, se taasen menee (siis syreenit kukkivat): F5 
C5  G#5  C#5  G5
 
Kertoskeen soinnut ovat  Am  Em  F  G

Ja sitten "siunaa meit...":    A5  E5  F5  G5 
"nyt meille oikeat askeleet": A5  G5  F5  E5
sitten introon

Kyll se Yrjn ainakin viel tuossa harjoitteluvaiheessa soittaa
kertoskeess C:n eik F:. Kahtokaa vaikka ite.
       
---Kyllp se minun mielest on ett skeist menee nill: A5  F5  Bb5  G5

kertsi siis kuin tuolla ylimpn: Am Em C G

-----------------------------------------------------------------------------------------------------------------

INTRO

 Eka kitara aloittaa tmmsell
e|-----------------------------------|
B|-----------------------------------|
G|-----------------------------------| X8
D|-----------------------------------|
A|-------------------------------3-----------|
E|-5-55-55-66-6-3--5-55-5--66-6-5-3--|

 ja toinen tulee 5. kerralla mukaan tmmsell
e|-----------------------------------|
B|-----------------------------------|
G|-----------------------------------|
D|-2--7-6-3-2----------2--10-9-6-2---|
A|-----------------------------------|
E|-----------------------------------|

 Loppuun kitarat soittaa pllekkin nin
e|---------------|
B|---------------|
G|---------------| X3
D|---------------|
A|--33-----------|
E|-----66-55-3---|

e|---------------------------|
B|---------------------------|
G|---------------------------|
D|-5-4--2-0-5-4-2-0-5-4-2-0--|
A|---------------------------|
E|---------------------------|

A5                F5
Sireenit kukkivat taas 
     A#5            G5
Vesi vapaana juosta saa 
       A5            F5
Kunnes syksy hamppua niitt 
   A#5             G5
Ja vanhukset tuuli vie 
    A5             F5
Elon epmttmn kulkuun 
      A#5           G5
Uinuu huomisen kanteleet 
      A5               F5
Syksyn laulaja kesss kulkee 
        A#5          G5
Peitt hautoja seppeleet 

       A5       E5
Siell pmr lie 
      C5         G5
Miss hiljaisuus soi 
      A5      E5
Sinne lauluni vie 
      C5        G5
Miss laulaa ei voi 
     A5           E5
Siis siunaa meit katseellasi 
C5           G5
Aurinkoinen, Kuutamoinen 
A5    E5     C5     G5
Nyt meille oikeat askeleet 

 Kertskeistjen plle toinen 
 kitara soittaa nin
e|-----------------------------|
B|-1-0-1--0-1-0--1-0-1-3-3-1-0-|
G|-----------------------------| X3
D|-----------------------------|
A|-----------------------------|
E|-----------------------------|

 ja viimeisen rivin kohdalla nin
e|---------------------------|
B|---------------------------|
G|-2-2--4-4-5--55--754--2----|
D|---------------------------|
A|---------------------------|
E|---------------------------|

A5                F5
Sireenit kukkivat taas 
      A#5            G5
Virta ruumista tuudittaa 
   A5            F5
Ja alavan hallan mailta 
       A#5       G5
Kuuluu sian kirkunaa 
    A5               F5
Min tiedn miksi on kallis 
     A#5           G5
Joka kihara lapsen pn 
  A5                F5
Ja miksi on mieleni altis 
       A#5           G5
Kellon taapin kntmn 

       A5       E5
Siell pmr lie...

Thn vliin tulee soolo-hrily,
selvitn sen myh.

A5       E5
Pmr lie 
      C5         G5
Miss hiljaisuus soi 
      A5      E5
Sinne lauluni vie 
      C5        G5
Miss laulaa ei voi 
     A5           E5
Siis siunaa meit valollasi, 
C5          G5
Tiedollasi, pelollasi 
A5    E5     C5     G5
Nyt meille oikeat askeleet

Loppuhrily

-Selvitti Niko L.


(Päivitetty 01/08/2008)


Muokkaa tabulatuuria »