CMX : Tabulatuurit : Kultanaamio

INTRO:               
                                   3x
E ----------------------------------|---------------------------------|
H ---------------------------------*|---------------------------------|
G ----------------------------------|---------------------------------|   

D ----------------------------------|---------------------------------|
A ---------------------------------*|---------------------------------|
E -8-8-6-8-8-6-8-6-6-6-5-6-6-5-6-5--|-5-5-3-5-5-3-5-3-5-5-3-5-5-3-5-3-|


OSA A:

SAMA KUIN INTRO 2x

OSA B: 
                                  3X 
E
-3-----------7---5-----------1---|---------------------------------------------------------------------------------|
H
-3-----------9---7-----------1--*|---------------------------------------------------------------------------------|
G
-4-----------9---7-----------2---|---------------------------------------------------------------------------------|
D
-5-----------9---7-----------3---|---------------------------------------------------------------------------------|
A
-5-----------7---5-----------3--*|---------------------------------------------------------------------------------|
E
-3-----------7---5-----------1---|-3-3-3-3-3-3-3-3-2-2-2-2-2-2-2-2-1-1-1-1-1-1-1-1-8-8-8-8-8-8-8-8-8-8-8-8-8-8-8-8-|

OSA C:
  E5              C5              G5              D5               3X
E
------------------------------------------------------------------|------------------|
H
-----------------------------------------------------------------*|------------------|
G
-----------------5-----5-----5-------------------7-----7-----7----|-7-----7-----7----|
D
-2-----2-----2-----5-----5-----5-5-----5-----5-----7-----7-----7--|---7-----7-----7--|
A
---2-----2-----2-----3-----3-------5-----5-----5-----5-----5-----*|-----5-----5------|
E
-----0-----0-------------------------3-----3----------------------|------------------|


Vai meniskö osa C: G|F#|F|C|  Kvinteillä soitettuna?


OSA D:
                       2X
E ----------------------|----------------------|
H ---------------------*|----------------------|
G ----12-8~---13-8------|--14-8----------------|
D -10--------------10~--|-------10~------------|
A ---------------------*|----------------------|
E ----------------------|----------------------|

OSA E:

E ----------------------------------------------|
H ----------------------------------------------|
G --5----4----5----8----5----4------------------|
D --5----4----5----8----5----4----7--5--7--5--7-|
A --3----2----3----6----3----2----7--5--7--5--7-|
E --------------------------------5--3--5--3--5-|

RAKENNE: 2X INTRO, OSA A, OSA B,OSA C, OSA D, OSA A,OSA B, OSA C, OSA E,
OSA C, 2X INTRO FADE OUT 



(Päivitetty 22.01.2002)


Muokkaa tabulatuuria »