CMX : Tabulatuurit : Näkyjen pitelijä

Intro:
12 tahtia rumpuja
Em | D | Am | F#m G | x24

E-----------------5----------------
H-5-----3----5---------5----7---8--
G-----5----------------------------
D----------------------------------
A----------------------------------
E----------------------------------

intro  2
e----------------------------------
H----------------------------------
G-7----3--5----7--12----7--9----10-
D----------------------------------
A-5----1--3----5--10----5--7----8--
E----------------------------------
Tuossa ei ole paljonkaan ajoitusta huomioitu mutta sointujen pitäs mennä
oikein.

(vain rummut)
se paljastuu tuhat kertaa ja lyö
todellisuuksien rajat antavat myöten
E----------------------------------
H----------------------------------
G----------------------------------
D----------------------------------
A-9-7---7-9-7---6-7-7-7-8-7-7-7-7--
E-----9-------9--------------------

F#          E         F#   E
ei sitä voi suin sanoa
F#         E      F#  E
ei mielin käsittää
G                   Bb   D
rakennamme sanoista tornia
G           Bb      D
minä odotan salaman lyövän
F
eläimeni, valvo untani
D
pitele luitani
    C            G
älä koske niihin esineisiin
      A       C     D Eb D C
jotka näen ja ymmärrän

E----------------------------------
H----------------------------------
G----------------------------------
D----------------------------------
A-------3-3-3--5-5-5-6--5-3--------
E-5-5-5----------------------------

A               G
ja joka jumalan aamu
A               G
tule minulle noidaksi
A            G
tule minulle alttariksi
E              G
salojen jakajaksi

Hauskoja soittohetkiä!  (lisäsin vain intro kakkosen, tp teki muut osat)

(Päivitetty 15.08.1999)


Muokkaa tabulatuuria »