CMX : Tabulatuurit : Marian ilmestys (basso)

Oli tuo vanha niin ketuillaan, että...

Intro/kertsi:

| F# |  A | F# |  H |
| F# |  A | F# |  H |
|  G |  G |  E |  E |

Versen alku:

E-5-----5--5h7-0-

Räminä (Pöllin ja lyhensin surutta kitarapuolelta, oli niin hyvä)

F#5     A5     F#5 G5
rauhattomuuden merenä
F#5     A5   C5      D5
aaltoat joka suuntaan
F#5       A5    F#5     G5
päättyykö hiljaisuutesi nyt
F#5  A5   C5    D5
vaeltaako henki tänne
F#5  A5  F#5  G5
aa______________
F#5  A5  C5       D5
_________rukoilen sinua
F#5  A5  F#5  G5
Maria
F#5  A5  C5   D5
         anna minulle
F#5  A5  F#5  G5
elämä

Loppu:

D-------------5h7-------------5h7p5-5/x-----
A---------5h7-----7--7-----7----------------
E-5---5h7-------------------------------3-3-

Parreempi näi:
D---------------7--------------5h7p5-5/x-----
A---------5h7-----7--7----7-7----------------
E-5---5h7-------------------------------3-3/-

Taikka näin:
D-------------5-----------5h7h5-/3-------
A--------5h7-----7-7--7-------------------
E-5--5h7-----------------------------33/--

(Päivitetty 13.01.2002)


Muokkaa tabulatuuria »