CMX : Tabulatuurit : Vieraita avaruudesta

Intro/välisoitto:

 G#5 | F5   x4

(melodia):
|--------------------------------------------------------------------------------------|
|--------------------------------------------------------------------------------------|
|-13--13br-12--13-12-13--13br-12-13/-15-15/17--17-18-17-15-13-15-13--14-15-13-12--13\--|
|--------------------------------------------------------------------------------------|
|--------------------------------------------------------------------------------------|
|--------------------------------------------------------------------------------------|


  Säe 1:
|------------------------------------|  
|------------------------------------|
|------------------------------------|  
|------------------------------------|
|------------------------------------|  
|------------------------------------| kitara 1
|------------------------------------|x3
|-3-3-3-xxxx-3-3-xx------------------|
|-6-6-6-xxxx-6-6-xx-3-3-3-xxxx-2-3-5-|  
|-1-1-1-xxxx-1-1-xx-4-4-4-xxxx-4-4-4-|
|-4-4-4-xxxx-4-4-xx-1-1-1-xxxx-0-1-3-|  
|-------------------2-2-2-xxxx-2-2-2-|
  d d               d d                     d d               d d          
   (d=demppaa)

	"Eräänä aamuna, kun joki on jäässä..."

|------------------------------------|  
|------------------------------------|
|------------------------------------|  
|------------------------------------| kitara 2
|-------------------5----------------|  
|-3----------------------------------|(tulee mukaan
|------------------------------------|x3
|-------------------4----------------| 3.ja 4.kerralla)
|-3----------------------------------|  
|------------------------------------|
|------------------------------------|  
|------------------------------------|


  Kertosäe:
|---------------------------------|   |---------------------------------|
|---------------------------------|   |---------------------------------|
|---------8-8-8-8-----------------|   |---------------------------------|
|-5-5-5-5-8-8-8-8-8-8-8-8-6-6-6-6-|x3 |-4-4-4-4-4-4-4-4-3-3-3-3-3-3-3-3-|
|-5-5-5-5-6-6-6-6-8-8-8-8-6-6-6-6-|   |-4-4-4-4-4-4-4-4-3-3-3-3-3-3-3-3-|
|-3-3-3-3---------6-6-6-6-4-4-4-4-|   |-2-2-2-2-2-2-2-2-1-1-1-1-1-1-1-1-|

	"Siinä makasi hän kuolleena..."

  Väliosa:

  C                             Am             Em           G
    Ellen sen auringon alla saa elää, en tahdo elää tietäen siitä
  C   (Cmaj7)            Am  (Asus2)    Em                       G
    Ne ovat saavuttaneet taas, ei tästä maailmasta löydy paikkaa mihin
ne ei vois lentää


    P.S. Uskoisin että tää on aika lähellä totuutta... antoisia
soittohetkiä!

(Päivitetty 24.12.2001)


Muokkaa tabulatuuria »