CMX : Tabulatuurit : Nahkaparturi

Pääriffi/säkeistö
e -------------------------------------------------------------------
H -------------------------------------------------------------------
G -7---9-9-X-9-X-9-9---9-9-X-9-X-9-9---------------------------------
D -7---9-9-X-9-X-9-9---9-9-X-9-X-9-9-9---1111X-11X-119---1111X-11X-11
A -5---7-7-X-7-X-7-5---7-7-X-7-X-7-7-9---1111X-11X-119---1111X-11X-11
E -----------------------------------7---9-9-X-9-X-9-7---9-9-X-9-X-9-

Välikikkailu
e -------------------------
H -------------------------
G -------------------------          -------999--------
D -5-4-0-3-2---------------          ------------9--12-
A -----------3-5-4-0-3-2--- (basso:) -777--------------
E -----------------------0-          ------------------

Kertosäe
E, D, E, F, E, D, E, C#

Eli jokseenkin näin:
e|  ------------------------------------------------------
H|  ------------------------------------------------------
G|  99999999-77777777-99999999-10101010 
D|  99999999-77777777-99999999-10101010 
A|  77777777-55555555-77777777-88888888
E|  ------------------------------------------------------

e|  ------------------------------------------------------
H|  ------------------------------------------------------
G|  99999999-77777777-99999999-66666666 
D|  99999999-77777777-99999999-66666666 
A|  77777777-55555555-77777777-44444444
E|  ------------------------------------------------------

- Korjasin oman virheeni (TH)

Välikikkailu 2
e -------------------------    ---------------------------------------
H -------------------------    ---------------------------------------
G -------------------------    ---------------------------------------
D -------------------------    -2-4-0-0-2-4---------------------------
A -4---444444444-2-0-------    -------------2-------0-------1---------
E -------------------4-2-0-    -------------------------------------4-

Minun mielestäni tämä menee kylläkin näin (TH):
e -------------------------    ---------------------------------------
H -------------------------    ---------------------------------------
G -------------------------    ---------------------------------------
D -------------------------    -2-0-0-2-4-5--------------------------
A 444444444-4-2-0-------    -------------2-------0-------1---------
E -------------------4-2-0-   
-------------------------------------4------0



(Päivitetty 15.08.1999)


Muokkaa tabulatuuria »