CMX : Tabulatuurit : Musiikin ystävälliset kasvot (basso)

4x

A -7-7-7-7-7-7-7-5-------------------------------------------------
E -----------------7-7-7-7-7-7-7-6-5-5-5-5-5-5-5-5-3-3-3-3-6-6-8-8-

A -5-5-5-5-5-5-5-5-6-6-6-6-6-6-6-6-

Sitten rämistellään vähän aikaa vaan E:tä kunnes alkaa laulu ja:

E -0-0-0-0-2-2-2-2-3-3-3-3-

Siinä hämyssä kohdassa voit vaikka soittaa peeämmällä eetä tai
vaikka
hakata bassoa lattiaan tai mitä tahansa jotta saat sellaisen sopivan
*pök* *pök* *pök* *pök* - äänen aikaan.

A -5-5-5-5-5-5-5-5-----------------2-2-2-2-2-2-2-2-2-------------------
E -----------------3-3-3-3-3-3-3-3-------------------3-3-3-3-3-3-3-3-3-
   "LIIIIIIIIIIIIHAAAAAAAKIIIIIIIIIIIIIRRJAAAAAAAAAAAAAAA!!!!!!!!!!!!!!"

A ----------3-3-3-3----------3-3-3-3-
E -1-1-1-1-----------4-4-4-4---------
   "Ota käärmeeltä avaimet..."

Outo loppuriffi menee jotenkin näin:

G---7---5----7----5------------------
D----5-7--7----5-7-7-----------------
A--5--------5------------------------

(Päivitetty 15.08.1999)


Muokkaa tabulatuuria »