CMX : Tabulatuurit : Musiikin Ystavalliset Kasvot '97

Viritys  E;A;D;G;H;e

Intro
  Kitara 1
|----------------------------------------
|----------------------------------------
|----------------------------------------
|------5---5--5h7p5---------------------  x4
|--7-7---7---7---------5---5---5-7-----
|------------------7-7---7---7-----------

Alkuriffi (soitetaan intron aikana)
  Kitara 2 (basso soittaa samaa riffia)
|------------------------------------
|------------------------------------
|--9-------4-------------------------
|--9-------4-------2-2-2-2-----------  x4
|--7-------2-------0-0-0-0-5-5-8-10--
|--------------------------3-0-6-8---

|-----------------(anna soida...)---
|-----------------(basso tippuu ala-E:hen)
|------------------------------------
|--7-7-7-7-8-8-8-8-9-----------------
|--5-5-5-5-6-6-6-6-7-----------------
|------------------------------------

1.Sakeisto
  Basso
|----------------------------
|----------------------------
|----------------------------  x4
|--0-0-0-0-2-2-2-2-3-3-3-3---

"Valitykitys"
  Kitara 1&2, basso soittaa ala-E:ta
|----------------------------
|----------------------------
|----------------------------
|--x-x-x-x-x-x-x-x-x-x-x-x---
|--x-x-x-x-x-x-x-x-x-x-x-x---
|--x-x-x-x-x-x-x-x-x-x-x-x---

2. Sakeisto
  Basso , soittaa samaa riffia kuin ekassa sakeistossa

Valitykitys

Prechorus  ("Lihakirjaaaaaa-aaaaaa..."
  Kitara 1 (En ole tasta ihan 100% varma, 
|-----------kommentoikaa joku jos te olette)
|------------------------------------
|--7-7-7-7-7-7-7-7-7-7-7-7-7-7-7-7---
|--7-7-7-7-7-7-7-7-7-7-7-7-7-7-7-7---
|--5-5-5-5-5-5-5-5-5-5-5-5-5-5-5-5---
|------------------------------------

  Kitara 2, bassolla sama riffi
|------------------------------------
|------------------------------------
|--7-7-7-7---------4-4-4-4-----------
|--7-7-7-7-5-5-5-5-4-4-4-4-5-5-5-5---  x2
|--5-5-5-5-5-5-5-5-2-2-2-2-5-5-5-5---
|----------3-3-3-3---------3-3-3-3---

Chorus
  Kitara 1
   Soittaa suunnilleen samaa kuin kitara 2, mutta jotain
   eria siina on, en saa selvaa.

  Kitara 2, bassolla sama kuvio (kai)
|--------------------------------------------
|--------------------------------------------
|--------------------------------------------
|--------------------------------------------
|------3-------3-------3-------3-------3-----
|--3-3---3-4-4---4-3-3---3-4-4---4-3-3---3---

|----------------------------
|----------------------------
|----------------------------
|----------------------------
|------3---3-----3-----------
|--4-4---4---4-3---4-4h6p4---

|--------------------------------------------
|--------------------------------------------
|--------------------------------------------
|--------------------------------------------
|------3-------3-------3-------3-------3-----
|--3-3---3-4-4---4-3-3---3-4-4---4-3-3---3---

|------------------------
|------------------------
|------------------------
|------------------------
|------3---3-----3-4-5---
|--4-4---4---4-3---------

  Kertaa intro

  Kertaa 1.sakeiston riffi

  Kertaa valitykitys

3.sakeisto (basso soittaa samaa riffia kuin muissakin sakeistoissa)
  Kitara 1  (myos toisella kitaralla on tassa jotain...)
|----------------------------
|--------------12--17--15----
|--9---11--12----------------
|--------------9---14--12----  x2
|--7---9---10----------------
|----------------------------

Filli kahdella kitaralla (ei ole aivan oikein, mutta ainakin sinnepain)
  Kitara 1
|----------------
|----------------
|--3-4-5-6-7-8---
|----------------  x4
|----------------
|----------------

  Kitara 2
|----------------
|--3-2-1-2-3-4---
|----------------
|----------------  x4
|----------------
|----------------

  Kertaa prechorus

  Kertaa chorus

  Kertaa intro

Outro
  Basso
|----------------------------
|----------------------------
|--0-------5-------3h4h5--3--
|----------------------------

  Kitara 1
|--------------------------------
|--------------------------------
|--7------7------7---5h7--7--2---
|--0------0------0---0----0--0---
|--------------------------------
|--------------------------------
                                    x2 molemmat rivit
|----------------------------------
|----------------------------------
|--7------5------7----9------7h4---
|--0------0------0----0------0-----
|----------------------------------
|----------------------------------
                                    sitten:
|------------------------
|------------------------
|--12--11--14--12--11----  x2
|--0---0---0---0---0-----
|------------------------
|------------------------
                          ja sitten:
|---------------------------------------------
|---------------------------------------------
|--11-h12--9--h11--7--h9---5--h7---3---2b--0--
|--0-------0-------0-------0------------------
|---------------------------------------------
|---------------------------------------------

Fadeout (soittele siihen asti vaikka outron ekaa riffia)



(Päivitetty 15.08.1999)


Muokkaa tabulatuuria »