CMX : Tabulatuurit : Iliman Pielet (Basso)

riffi 1 x4
G|-----------------------------------------------------------------|
D|-----------------------------------------------------------------|
A|-2-2-2-2-2-2-2-2-2-5-5-5-5-5-5-5-1-1-1-1-1-1-1-1---3-3-3-3-3-3-3-|
E|-----------------------------------------------------------------|

riffi 2 x4
G|-----------------------------------------------------|
D|-----------------------------------------------------|
A|-----------------------------------------------------|
E|-888888^5^333333^5^777777^5^222222^5^----------------|  ^ ovat liutuksia

                                                            kuuntele
levyltä miten tämä menee
                                                            riffi kiertää
tuon viimeisen 5 jälkeen
                                                            alkuun  
riffi 3 x8
G|--------------------------|
D|--------------------------|
A|-----2---0--------0-------|
E|-0----------3-2-------3-2-|  basso soittaa samaa riffiä 2 kitaran kanssa
päällekäin
                               kuuntele ajoitukset
filli 1 x1
G|-----------------|
D|-----------------|
A|-------------5-6-|
E|-0-0-0-3-3-3-----|

rakenne:
riffi 1 x4
riffi 2 x4
riffi 3 x8
filli 1 x1
riffi 1 x4 viimeistä sointua ei soiteta (kuuntele levyltä)
riffi 2 x4
riffi 3 x8
filli 1 x1
riffi 1 x8 viimeistä sointua ei soiteta (kuuntele levyltä)

(Päivitetty 02.08.2001)


Muokkaa tabulatuuria »