CMX : Tabulatuurit : Riitti

Pääriffi:
e------------------------
b------------------------
g------------------------
d--9--9--11-11--7-7--7---
a--7--7--9--9---5-5--5---
e------------------------
1. kitara soittaa tätä koko biisin ajan paitsi kertosäkeissä.

Intron loppupuolella ja 1. säkeistön jälkeen 2. kitara soittaa
tämmöistä riffiä:
e----7---5---3---2---0---1s2-2-2-5-3--
b--0---0---0---0---0---0--------------
g-------------------------------------
d-------------------------------------
a-------------------------------------
e-------------------------------------

Kertosäe:
1. kitara
|A|A|A|A|

2. kitara
e--15-14-15-12-15-14-12-14--
b---------------------------
g---------------------------
d---------------------------
a---------------------------
e---------------------------

1. kertosäkeen jälkeen, ennen säkeistön alkua 2. kitara soittaa jotakin
tämäntapaista:
e-------------------
b-------------------
g-------------------
d--4-5-5-4-4-5-4-4--
a-------------------
e-------------------

4. säkeistön ja 2. kertosäkeen ajan 2. kitara soittaa näin:
e--7s12-12-12-12s9-9-9-9s7-7-7--
b-------------------------------
g-------------------------------
d-------------------------------
a-------------------------------
e-------------------------------

Ja 5. säkeistön alussa soitettava sointu on tällainen:
e--12---
b--12---
g--12---
d-------
a-------
e-------

(Päivitetty 31.07.2001)


Muokkaa tabulatuuria »