CMX : Tabulatuurit : Pelon enkeli

Näppäilyintro: 
 
E|----7---3-------|----2-----0---0-|----3---2-----0-|--------0---2---|
B|--5---5---5---5-|--5-----5-------|--0---0---0-----|0---3-----0---0-|
G|----------------|----------------|----------------|----------------|
D|5-----------5---|4-----4-----4---|2-----------2---|--2---2---------|
A|----------------|----------------|----------------|----------------|
E|----------------|----------------|----------------|----------------|
 
huilukohta: | G | F# | F# | E |
 
Sitten säröllä: ( *=tremolo picking )
 
E|-------------------------------------------------------------
H|-------------------------------------------------------------
G|-------------------------*-----------------------------------
D|-*-----------------------10--10--9--7------------------------ x4
A|-7--7--9--10--12--10--9----------------10--9--7--------------
E|-------------------------------------------------------------
toinen kitara oktaavia alempaa (tai ylempää)
 
E|-------------------------------------------------------------
H|------------------------------*------------------------------
G|-*----------------------------14--14--12--11--12--12--11--9--
D|-11--11--12--14--16--14--12---------------------------------- x4
A|-------------------------------------------------------------
E|-------------------------------------------------------------
2. kitara oktaavia alempaa
 
E|-------------------------------------------------------------
H|-------------------------------------------------------------
G|-------------------------*-----------------------------------
D|-------------------------10--10--9--7------------------------ x1
A|----7--9--10--12--10--9----------------10--9--7--------------
E|-0-----------------------------------------------------------
 
E|-------------------------------------------------------------
H|-------------------------------------------------------------
G|-------------------------*-----------------------------------
D|-*-----------------------10--10--9--7------------------------ x3
A|-7--7--9--10--12--10--9----------------10--9--7--------------
E|-------------------------------------------------------------
 
Sen jälkeen:
 
E|----------------------------------------------------------------
H|----------------------------------------------------------------
G|----------------------------------------------------------------
D|-5--5--5----7--7--7----4--4--4----5--5--5----4--4--4--4---4--4--
A|-5--5--5----7--7--7----4--4--4----5--5--5----2--2--2--2h3p2--0--
E|-3--3--3----5--5--5----2--2--2----3--3--3-----------------------
                                                                  nämä
x4
E|---------------------------------------------------------
H|---------------------------------------------------------
G|----pm-pm-pm---------------------------------------------
D|-4--4--4--4--5--4--5--7----------------------------------
A|-4--4--4--4--5--4--5--7----------------------------------
E|-2--2--2--2--3--2--3--5----------------------------------

ja olisko vaikka toisella kitaralla päälle näin:

E|----------------------------------------------------
H|----------------------------------------------------
G|----------------------------------------------------
D|----5--5--5-----7--7--7-----4--4--4-----5--5--5-----
A|----7--7--7-----7--7--7-----7--7--7-----7--7--7-----
E|----------------------------------------------------
                                                                samoin x4
E|-------------------------------------------
H|-------------------------------------------
G|-------------------------------------------
D|-4--4--4--4---4--4--4----4-4-4-4-4-4-4-----
A|-2--2--2--2h3p2--0--4----4-4-4-4-4-4-0-----
E|--------------------2----2-2-2-3-2-3-------
 

akustisella tuota menoriffiä x4
ja säröllä x4
 
E|-------------------------------------------------------------
H|-------------------------------------------------------------
G|-------------------------------------------------------------
D|--n.h.-------------------------------------------------------
A|--[7]-jää-soimaan--------------------------------------------
E|-------------------------------------------------------------
 
E|-------------------------------------------------------------
H|-------------------------------------------------------------
G|--*----------------------------------------------------------
D|--10---9--7---------10--7~~~~~~~~~~~~~-----------------------
A|-------------10--9-------------------------------------------
E|-------------------------------------------------------------
 
näppäilyä & huilua
 
aa-aa-kohta:
 
E|-------------------------------------------------------------
H|-------------------------------------------------------------
G|-------------------------------------------------------------
D|--9-----7--------9-----7-------------------------------------
A|-----------9--------------9-----10--7------------------------
E|-------------------------------------------------------------

(Päivitetty 25.06.2001)


Muokkaa tabulatuuria »