CMX : Tabulatuurit : Olkoon täysi sinun maljasi (basso)

intro:

d-------------------------------------------------------------
g-------------------------------------------------------------
a-5-/-7-7-7-7-/-9-9-9-9-/-10-10-10-10-\-3-3-3-3-/-10-10--5-5--
e-------------------------------------------------------------

säkeistö:

d------------------------------------------------------
g------------5--5--------------------------------------
a--7--7-5-7-------7--5-7-5-7---------------------------
e-(0)(0)---------------------5--5-3-5--5-5-3-5--5-3-5--

toinen säkeistö alkaa samalla kuin eka mutta puolessa välissä tulee 4
kertaa 

d---------------------------------------------------------------------------
g-------------------------7-8-9-8-7-----------------------------------------
a-7-7--7-5-7--10--7-10------------------------------------------8-9-10-9-8--
e-------------------------------------5--5-3-5--5-5-3-5--5-3-5--------------
(tästä ei mitään varmuutta)

soolo säkeistön riffillä, mutta muutamassa kohdassa tulee jotain muuta
(?) kuviota...

progerevittely:

G|-7-77-77-77-77-7-7-77-77-77-754--7-77-77-77-77-7-7-77-77-77-75-3---|
D|-------------------------------7---------------------------------7-|
A|-------------------------------------------------------------------|
E|-------------------------------------------------------------------|

G|-------------------------------------------------------------------|
D|-------------------------------------------------------------------|
A|-5-55-55-55-55-5-5-55-55-55-5320-5-55-55-55-55-5-5-55-55-55-53-2-0-|
E|-------------------------------------------------------------------|

improvisointia

(ks. kitara tab)

(Päivitetty 16.06.2001)


Muokkaa tabulatuuria »