CMX : Tabulatuurit : Ei tästä maailmasta

Alkuriffi (x4): 

E ---------------------------------
B ---------------------------------
G ---------------------------------
D ---------------------------------
A ---------------------2-----2-----
E -0-0-3-0-0-3-0-0-3-3---3-3---3-3-

E ---------------------------------
B ---------------------------------
G ---------------------------------
D ---------------------------------
A -0-0-3-0-0-3-0-0-2-2-5-2-2-5-----
E -----------------------------3-3-



Sitten tulee mutella seuraava (x4) :

E----------------------------------
B----------------------------------
G----------------------------------
D----------------------------------
A--4-4-4-4-2-2-2-2-4-4-4-4-2-2-2-2-
E--2-2-2-2-0-0-0-0-2-2-2-2-0-0-0-0-

E----------------------------------
B----------------------------------
G----------------------------------
D---------------------------------- 
A--4-4-4-4-2-2-2-2-5-5-5-5-7-7-7-7-
E--2-2-2-2-0-0-0-0-3-3-3-3-5-5-5-5-

Seuraava riffi neljä kertaa:

E-----------------------------------
B-----------------------------------
G--4-4-4---7-7-7---9-9-9---11-11-11-
D-----------------------------------
A--2-2-2---5-5-5---7-7-7---9--9--9--
E-----------------------------------



 Edellisen riffin kanssa tulee toisella kerralla(x4):

E------7------------------------
B-----10b---3----5----7---------
G-----------5b---7b---9b--------
D-------------------------------
A-------------------------------
E-------------------------------

b = kahden nauhan bendi.


Tää filli edellisen riffin perään ja sitte taas alkuriffi: 

E-------------------
B-------------------
G-------------------
D-------------------
A--5-5-5-4----------
E-----------5-3-3---

Sitten kun kertosäe o tullu toisen kerran, tulee tää juttu (x4):

E------------------------------------
B------------------------------------
G------------------------------------
D-6-6----------------6-6-------------
A-4-4--6-6-7-7-4-4---4-4-6-6-7-7-2-2-
E------4-4-5-5-2-2-------4-4-5-5-0-0-

Tää tulee perään:

E---------------------
B---------------------
G---------------------
D--6-6----------------
A--4-4-6-6-7-7-5-5----
E------4-4-5-5-3-3----

Tässä välissä toinen kitara soittaa tällaista kuviota 
(jotkut sävelet saattavat olla hammer-oneja, ei kuule efektien läpi):

E---------------3-----
B----5-----5--5--4----
G-0-4---0-4-----------
D---------------------
A---------------------
E---------------------

Sitten tulee edellisiä riffejä uudestaan, kuuntele levyltä miten ne
tulee. 
Lopussa tulee vielä tämmönen kuvio:

E---------------------------------
B---------------------------------
G---------------------------------
D---------------------------------
A---------2---------1-----1-------
E-0---0-3---3---0-3---2-----2-1—--


Toivottavasti ei ole liian sekavan näköistä.


(Päivitetty 28.03.2001)


Muokkaa tabulatuuria »