CMX : Tabulatuurit : Luuhamara

riffi A
E|-------------------------------------------|
B|---5---5---5---5---5---5---5---5---5---5---|
G|---3---3---3---3---3---3---3---3---3---3---| ktr 1
D|-------------------------------------------|
A|-------------------------------------------|
E|-0---0-985--0---0---0---0---0---0---0---0---0-|
 | .   .   .   .   .   .   .   .   .   .   . |
E|-------------------------------------------|
B|-------------------------------------------|
G|-------------------------------------------| ktr 2
D|-2---2---2---2---2---2---2---2---2---2---2-|
A|-1---1---1---1---1---1---1---1---1--2..9-1---1-|
E|---0---0---0---0---0---0---0---0---0---0---|
     .   .   .   .   .   .   .   .   .   .


riffi A.1
E|---------------------------------------------------------------------------------------|
B|-5---5---5---5---5---5---8---8---8---8---8---8---8---8--11--11--11--11--14--14--14--14-|
G|-3---3---3---3---3---3---6---6---6---6---6---6---6---6---9---9---9---9--12--12--12--12-|
ktr 1
D|---------------------------------------------------------------------------------------|
A|---------------------------------------------------------------------------------------|
E|---0---0---0---0---0---0---0---0---0---0---0---0---0---0---0---0---0---0---0---0---0---|
 |   .   .   .   .   .   .   .   .   .   .   .   .   .   .   .   .   .   . 
 .   .   .   |
E|---------------------------------------------------------------------------------------|
B|---------------------------------------------------------------------------------------|
G|---------------------------------------------------------------------------------------|
ktr 2
D|---2---2---2---2---2---2---2---2---2---2---2---2---2---2---2---2---2---2---2---2---2---|
A|---1---1---1---1---1---1---1---1---1---1---1---1---1---1---1---1---1---1---1---1---1---|
E|-0---0---0---0---0---0---0---0---0---0---0---0---0---0---0---0---0---0---0---0---0---0-|
   .   .   .   .   .   .   .   .   .   .   .   .   .   .   .   .   .   .  
.   .   .   .


riffi B   x4 (viimeisellä kerralla ei soiteta B5-sointua)
E|-------------------------------------|
B|-------------------------------------|
G|-------------------------------------|
D|---------------------------------9---|
A|11---13---11-13-11---13---11-13--9---|
E|-0----0----0--0--0----0----0--0--7---|


riffi C   x4
E|-----------------|
B|-----------------|
G|-----------------|
D|-----2-------2---|
A|-3---2-1---3-2-1-|
E|-3-----1---3---1-|


riffi C.1   x2
E|-----------------|
B|-----------------|
G|-----2-------2---|
D|-3---2-1---3-2-1-|
A|-3-----1---3---1-|
E|-----------------|


riffi C   x2


riffi D   x2
E|-----------------------|
B|-----------------------|
G|---------------hph-----|
D|-5---4-----5---4545----|
A|-------4-----------4---|
E|-----------------------|


riffi D.1   x2
E|-----------------------|
B|-----------------------|
G|---------------hph-----|
D|-8---7-----8---7878----|
A|-------8-----------8---|
E|-----------------------|


riffi D   x2
riffi D.1 x2


fill 1      					  **=ainoastaan toinen kitara tekee 
E|--------------------------------7--10--10/12---(12)\-| tämän liu'un
B|-------------------------6--9------------------------|
G|-------------------4--7------------------------------|
D|-------------3--6------------------------------------|
A|-------2--5------------------------------------------|
E|-1--4------------------------------------------------|


riffi E   x3   (toinen kitara soittaa vitos-sointuja taustalla)
E|-----------------7-------------------7------------9----------9---------7-----------9---|
B|-----8---------7---------8---------7-----------10----------9---------7----------10-----|
G|---9---9-----7---------9---9-----7----------11-----------9---------7----------9--------|
ktr 1
D|-9---------7---------9---------7---------11-----------11---------9---------11----------|
A|---------------------------------------------------------------------------------------|
E|---------------------------------------------------------------------------------------|


riffi B   x4
paitsi kolmanella kerralla näin
E|-------------------------------------|
B|-------------------------------------|
G|-------------------------------------|
D|---------------------------------9---|
A|11---13---11-13-11---16---11-13--9---|
E|-0----0----0--0--0----0----0--0--7---|


riffi C.2   x4
E|--------------|
B|--------------|
G|--------------|
D|-----2--------|
A|-3---2-1---xx-|
E|-3-----1---xx-|


riffi C.1   x2
riffi C.2   x2
fill        x1

riffi F        hp
E|-10h12p10---8108----------------------------------|
B|----------------10---810/11\10-6---6/8---5---(5)\-|
G|--------------------------------------------------| ktr 2
D|--------------------------------------------------|
A|--------------------------------------------------|
E|--------------------------------------------------|


riffi G   x3
E|--------------------------------------------------|
B|--------------------------------------------------|
G|---4----------------------------------------------|
D|-----7-5-7-5-4-5-7-5-4-5-4-5-4------------4-5-----|
A|-7-----------------------------7-6-7-6--------7---|
E|--------------------------------------------------|
 |					       	    |
E|--------------------------------------------------|
B|--------------------------------------------------|
G|-----------------------------------------------5--|
D|-------9---------------7---------------6--------5-|
A|-7---------------5---------------4--------3-------|
E|--------------------------------------------------|


E|---------------|
B|---------------|
G|---------------|
D|-4/7-7---------|
A|---------6-----|
E|-----------7---|
 |		 |
E|---------------|
B|---------------|
G|---------------|
D|---------------|
A|---------2-----|
E|---------------|




(Päivitetty 05.03.2001)


Muokkaa tabulatuuria »