CMX : Tabulatuurit : Olkoon täysi sinun maljasi

riffi A   x6 
E|---------------------------------------------------------------------------------|
B|---------------------------------------------------------------------------------|
G|-------------------------------------12-12-12-12-12p10---------------------------|
D|-7/9-9-9-9/11-11-11-11/12-12-12---12-10-10-10-10-10(10)12-12---------------------|
A|-5/7-7-7-7/9--9--9--9-/10-10-10---10-------------------10-10---12-12------12-12\\\\-|
E|---------------------------------------------------------------10-10------10-10\\\\-|

toinen kitara riffi A:n aikana
E|-15-14-------12--------------------|
B|-------12-15---------15-12---------|
G|---------------------------12------| x2
D|------------------------------14---|
A|-----------------------------------|
E|-----------------------------------|



filli 1
E|-----------------------------------|
B|-----------------------------------|
G|-12-12-12-12-12p10-----------------|
D|-10-10-10-10-10(10)12-12-----------|
A|-------------------10-10---12-12-12--|
E|---------------------------10-10-10--|



riffi B   x12
E|---------------------------------------------3-------|
B|-----0---3p0---3-0-----------1-------0---------0-----|
G|-----0-------0-----------2-----2-------2---------2---| 
D|-----2-----------------2---------2-------2-----------|
A|-----2---------------0-------------------------------|
E|-0---0-----------------------------------------------|
(Kitara kakkosta en jaksa ruveta selvittämään juuri nyt.
 Pitää katsoa jos sen tekisi joskus toiste. Tietenkin joku
 muu myös voisi tehdä sen)


filli 2
Pelkkiä sointuja: C  G

riffi A   x4
filli 1


riffi C
E|---------------------------------------------------------------------------|
B|---------------------------------------------------------------------------|
G|---------------------------------------------------------------------------|
D|---------------------------------------------------------------------------|
A|----7-9-10-10--7-10--7----7-9-10-10--7-10--7----7-9-10-10--7-10--7--9--5---|
E|-10---------8--8--8--8-10---------7--7--7--7-10---------8--8--7--7--5--5---|


Soolo
E|---------------------------------------------|
B|---------------------------------------------|
G|---------------------------------------------|
D|--h------------------------------------------|
A|-5-7-7-/10-7------h--5--------pp----------h--|      
E|---------------5-5-7---7-5---7505~---3-5-3-5-|

E|--------------------------------------------------------------|
B|-----------------------7--------------------------------------|
G|-----------------------7--------------------------------------|
D|-------------5-5-7-9------------------------------------------|
A|-----5---7-7-------------9-9-9-10-10\\\\14-12-12---12\\\\10---(10)\\\\-|
E|-0------------------------------------------------------------|

E|-------------------------7-----10-----------------------------|
B|--------------7---7-8-10---8-7----7-8-8/10~-----(10)\\\\---------|
G|---7-9-9-----x--9---------------------------------------7-7---|
D|--x---------x-------------------------------------------------|
A|-x------------------------------------------------------------|
E|--------------------------------------------------------------|

E|-------7-----10-----7-----10-----7----------------------------|
B|---7-8---8-7----8-7---8-7----8-7---8-7/8/10-10----10/12-12-12-|
G|-9------------------------------------------------------------|
D|--------------------------------------------------------------|
A|--------------------------------------------------------------|
E|--------------------------------------------------------------|

E|------------10-------------------7~------7~----------|
B|-12\\\\10-10-8--------7-8-10-8-7-10------10------10-8---|
G|-----------------9-----------------------------------|
D|-----------------------------------------------------|
A|-----------------------------------------------------|
E|-----------------------------------------------------|

E|--------------------15----14----0------15----14----15----14---0-*----|
*=kieltä ei soiteta, 
B|-10/12---12------12----12----12-----12----12----------12--------12\\\\8-|
  kunhan vain liu\\\'utat
G|-------9-------------------------------------------------------------| 
D|---------------------------------------------------------------------|
A|---------------------------------------------------------------------|
E|---------------------------------------------------------------------|

E|---------------------------7-7-----10-10--------7------7--------------------|
B|---------8-8-7---10-10-7-------8---------7----x---8-10---10-8-7-7-8---------|
G|---9-9---------------------------------------x----------------------7-7\\\\2---|
D|--x-------------------------------------------------------------------------|
A|-x--------------------------------------------------------------------------|
E|----------------------------------------------------------------------------|

E|-------------------------|
B|-------------------------|
G|-------------------------|
D|-002/5-5\\\\2-/5-/7---------|
A|-----------------5-7-\\\\---|
E|-------------------------|

 


riffi B   x4
filli 2
riffi A   x4


filli 3
E|-----------------|
B|-----------------|
G|-----------------|
D|-8p7-------------|
A|-----8-8p7-------|
E|-----------8-8---|


riffi C   x3
E|-------------------------------------------------------------------|
B|-------------------------------------------------------------------|
G|-------------------------------------------------------------------|
D|-------------------------------------------------------------------|
A|-5-55-55-55-55-5-5-55-55-55-5320-5-55-55-55-55-5-5-55-55-55-53-2-0-|
E|-------------------------------------------------------------------|



riffi D   x2
E|-----------------------------------------------------------------|
B|-----------------------------------------------------------------|
G|-----------------------------------------------------------------|
D|-----------------------------------------------------------------|
A|-5-55-55-55-55-5-5-55-55-55-5320-5-55-55-55-55-5-5-55-55-55-5320-|
E|-----------------------------------------------------------------|
 |							           |
E|--------10----------8--------------------------------------------|
B|----8------------6----------------------10-----------5-----------|
G|-7------------5----------------------7------------5--------------|
D|----------------------------------7------------5-----------------|
A|-----------------------------------------------------------------|
E|-----------------------------------------------------------------|


riffi D.1   x6
E|-----------------------------------------------------------------|
B|-----------------------------------------------------------------|
G|-----------------------------------------------------------------|
D|-----------------------------------------------------------------|
A|-5-55-55-55-55-5-5-55-55-55-5320-5-55-55-55-55-5-5-55-55-55-5320-|
E|-----------------------------------------------------------------|
 |							           |
E|-10--10----8-----------------------------------------------------|
B|-8----8----6----------------------10--10----5--------------------|
*=kahdella viimeisellä
G|-7----7----5----------------------7----7----5--------------------| 
kerralla kitara soittaa
D|----------------------------------7----7----5--------------------| 
sointuja tietyllä rytmillä
A|-----------------------------------------------------------------| 
mutten jaksa merkitä sitä
E|-----------------------------------------------------------------|



riffi E  loppuun asti, paitsi että neljännen kerran jälkeen kitarat 
E|------------------------|   soittaa taas hieman rytmikkäämmin
B|------------------------|
G|--------------7--7--5---|
D|-5--5--3------7--7--5---|
A|-5--5--3------5--5--3---|
E|-3--3--1----------------|
 |                        |
E|10-10--8----------------|
B|-8--8--6-----10-10--5---|
G|-7--7--5------7--7--5---|
D|--------------7--7--5---|
A|------------------------|
E|------------------------|




(Päivitetty 27.02.2001)


Muokkaa tabulatuuria »