CMX : Tabulatuurit : Suurta yötä päin

intro: |G|G D/F#|Em|C D| *2
         
       |F G|Em|Em|

Säkeistö: |Em Asus|C D| *4
          |Em|Em|A|H| *2
          |H|

Kerto: |G|G D/F#|Em|C D| *3
       |G|G D/F#|Em|C|D|

       |G|G D/F#|Em|C D| 
       |F G|Em|Em|

Säkeistö
Kerto: |G|G D/F#|Em|C D| *3 
       |G|G D/F#|Em|C|D|G|
               

           Loppu






riffi A   x2
E|-----------------------------------------------------------------|
B|-------------------------------3-------0-----0---------1-------3-|
G|-------4-----4---------4-----2-------0---0-----0-----0-------0---| 
D|-----5---5-----5-----5-------------2-------2-------2-------4-----|
A|---5-------5-------5-------5---------------------3-------5-------|
E|-3---------------3-------2-------0-------------------------------|


fill 1
E|-0-------0-------------0---------------0---------|
B|-1-----1-3-----3-----0---0-----------0---0-------| 
G|-2---2---4---4-----0-------0---0---0-------0---0-|   
D|---3-------5-------------------------------------|
A|-------------------------------------------------|
E|-----------------0-----------0---0-----------0---|
          

riffi B   x4  
E|-------0---------------0---------------0-------------------------|
B|-----0---0-----------0---0-----------1---1-------------3---3-----|
G|---0-------0---0---2-------2---2---0-------0---0---0-2---2---0---| 
D|---------------------------------2---------------4-------------4-|
A|-----------------0-----------0---3-----------3---5---------------|
E|-0-----------0---------------------------------------------------|


riffi C   x2
E|-------3-----2---------0-----0---------------5---------------7---|
B|-----0---0-----0-----0---0---3---------------5---------------7---|
G|---0-------0-------0-------0---0-------6-------6-------8-------8-| 
D|-------------------------------------7---7-----------9---9-------|
A|-----------------------------------7-------7-------9-------9-----|
E|-0---------------0---------------5---------------7---------------|


riffi A   x3

riffi A.1
E|---------------------------------------------------------------------------------|
B|-------------------------------3-------0-----0---------1-----1-----------3-------|
G|-------4-----4---------4-----2-------0---0-----0-----0---0-----0-----0-2---2-0---|
D|-----5---5-----5-----5-------------2-------2-------2-------2-------4-----------4-|
A|---5-------5-------5-------5---------------------3---------------5---------------|
E|-3---------------3-------2-------0-----------------------------------------------|


riffi A   x2


fill 1.1
E|-0-------0-------------0---------------0---------|
B|-1-----1-3-----3-----0-----0---0-----0-----0---0-|
G|-2---2---4---4-----0---------0-----0---------0---|  
D|---3-------5-------------------------------------|
A|-------------------------------------------------|
E|-----------------0---------------0---------------|


riffi B.1   x2
E|-------0---------------0---------------0-------------------------|
B|-----0-----0---0-----0-----0---0-----1-----1---1-------3---------|
G|---0---------0-----2---------2-----0---------0-----0-2-----2-0---| 
D|---------------------------------2---------------4-------------4-|
A|-----------------0---------------3---------------5---------------|
E|-0---------------------------------------------------------------|


riffi B   x2
riffi C   x2
riffi A   x3
riffi A.1


Tuomas

E: Nuotinnokset tabulatuureista saa tehtyä tällä työkalulla:
http://tabnabber.com/convert_guitar_sheet_music.asp

(Päivitetty 30.01.2001)


Muokkaa tabulatuuria »