CMX : Tabulatuurit : Kultaiset portaat

riffi A   
E|-----------------------------------------------------------------|
B|-----0---------------------------------------------------2---0-*-|
G|---------0-----0-----2---0-----0-------0-----------0-------0--*0*| *=ei
soiteta kahdella
D|---4-------4-------0---0---0---------2---2-------2---2---------*-|  
viimeisellä kerralla
A|-2-----2-----2---------------------2-------2---0-------0---------|
E|-----------------3-----------3---0-----------2-------------------|


riffi B   
E|-----------------|---|
B|-----------------|-3-|
G|-----------------|-0-|
D|-7---7---7---4---|-0-|
A|-5---7---4---2---|---|
E|-----------------|---|


riffi C
E|---------------------|
B|-3---2---------------|
G|-4---4---(0)---(3)---|
D|-4---4---(2)---(4)---|
A|-2---2---(2)---(4)---|
E|---------------------|


fill 1 riffi C:n päällä
E|------------------------------|
B|---------10-------------------|
G|---11-------------------------|
D|-9----12----11-12-12/14-12~---|
A|------------------------------|
E|------------------------------|


fill 1.2 riffi C:n päällä
E|--------------------------|
B|---------10---------------|
G|---11-------------9-11~---|
D|-9----12----11-12---------|
A|--------------------------|
E|--------------------------|

riffi C loppu: A F#

Kertosäe: D F#m E Bm | D F#m E B | D F#m E Bm | D F#m E C#

Urkusoolo jääköön tekemättä


Urkusoolon loppu
E|-----------------------------------------------|
B|---7-10-8-7---8-7------------------------------|
G|-9----------9-----9-7/9-7----7/9-7----7--------| kitara
D|--------------------------10-------10---10-9---|
A|-----------------------------------------------|
E|-----------------------------------------------|


riffi C.1
E|-------------------------|
B|-----0-------------------|
G|---------0---(0)---(3)---|
D|---4---4-----(2)---(4)---|
A|-2-----------(2)---(4)---|
E|-------------------------|



Riffit on merkitty sitä mukaan kun ne tulee CD:ltä. Missä vaiheessa ja
montako kertaa
joku riffi soitetaan, en merkinnyt.




(Päivitetty 28.01.2001)


Muokkaa tabulatuuria »