CMX : Tabulatuurit : Laulu palavasta linnusta

3/4
Intro:
e||---------------|---------------||---------------|------------|
h||---------------|---------------||---------------|------------|
G||.--------------|--------------.||---------------|------------|
D||.--------------|--------------.||---------------|2-0---0-----|
A||--------2-0---0|--------2-0---0||--------2-0---0|----2---2-0-|
E||0-0-3-3-----3--|0-0-3-3-----3--||0-0-3-3-----3--|------------| x 4


II
||------------------------------------------------------------||
||------------------------------------------------------------||
||-12-12-12-xxxx-12-12-12-xxxx-11-11-11-xxxx-14-14-14-xxxx----||
||-12-12-12-xxxx-12-12-12-xxxx-12-12-12-xxxx-14-14-14-xxxx----||
||------------------------------------------------------------||
||------------------------------------------------------------|| x2
Kosken kuulet korvillasi... / Laulultasi jou'u tähän...

||------------------------------------------------------------||
||------------------------------------------------------------||
||------------------------------------------------------------||
||------------------------------------------------------------||
||-7-7-7-7-7-7-7-5-5-5-5-5-5-5-5-5-5-5-5-5-5-7-7-7-7-7-7-7----||
||------------------------------------------------------------|| x2

Toisen kerran lopussa Kitara 2:           ||------------------||
                                          ||------------------||
                                          ||------------------||
                                          ||-2h0--------------||
                                          ||-----2-5-2h0-5-7--||
                                          ||-------------3-5--||


I x1


III
B  G E G  A F#
B  G E G  A  A# C
B  G E G  A F#
B  G E G  A  A# C 
B      B


IV
E              Cmaj7            C#dim          D
Laitan loitsun pääsi päälle kutsuhuudon kupeellesi
E          Cmaj7          C#dim           D
Siivet salamielellesi henkikultani harteilles
E              Cmaj7            C#dim          D
Laitan loitsun pääsi päälle kutsuhuudon kupeellesi
E          Cmaj7          C#dim           D             [ * ]
Siivet salamielellesi henkikultani harteilles   


I x2

II

I x1

III

IV x2

* Kertosäe 1. kerran: B B, 2. kerran: -, 3. kerran: B B B E




(Päivitetty 15.08.1999)


Muokkaa tabulatuuria »